Oops, an error
Loading. Please wait.

No Capes Tab

109 views 42 this week
no commentswrite comment
1 2 3 4 5
3 more votes to show rating
add to favorites
launch autoscroll
font size
0
reset
how to read this tab
guitar tuner
Autoscroll
slow
fast
+/-
esc
set tempo
stop
Help us to improve Ultimate-Guitar.com Take our survey!
×
Author
Difficulty
Tuning
intermediate
D A D G B E
Tuning: Drop D (DADGBe)

Guitar 1 - Awsten Knight
Guitar 2 - Geoff Wigington

Check out my guitar cover on YouTube!: 
https://www.youtube.com/watch?v=aXxxEGjf8Ng


[Intro]

Guitar 1
e|--------------------------------|
B|--------------------------------|
G|------7-------------------------|
D|-xxxx-7--x32-5------7-----------|
A|-xxxx-5------5--x24-7--x8-------|
D|-xxxx--------5------7-----------|

Guitar 2
e|------10-10-10----------10-10-10-------------------------|------------------|
B|------10-10-10-10-10-10-10-10-10-10-10-10-10-10-10-10-10-|-10--x20--12--x12-|
G|------7--7--7--6--6--6--7--7--7--6--6--6--6--6--6--6--6--|-7----------------|
D|---------------------------------------------------------|------------------|
A|---------------------------------------------------------|------------------|
D|------------------------------------------------------2x-|------------------|


[Verse 1]

Guitar 1
e|---------------------------------------------------------------------------------------|
B|---------------------------------------------------------------------------------------|
G|-----------------------------------------------------------7---------------------------|
D|---(silence)-----------------------------------------------7--x16-7------9------7------|
A|-----------------------------------------------------------5------7--x16-9--x16-7--x16-|
D|------------------------------------------------------------------7------9------7------|

Guitar 2
e|---------------------------------------------------------------------------------------|
B|---------------------------------------------------------------------------------------|
G|-----------------------------------------------------------7---------------------------|
D|--------7-7-7------------------------4--x12---------2--x12-7--x16-7------9------7------|
A|-5--x13-------7--x11-7-9-7-5-2-2-2-2--------0-0-0-0--------5------7--x16-9--x16-7--x16-|
D|------------------------------------------------------------------7------9------7------|


[Pre-Chorus]

(guitar 2 only, clean):
e|-7~------10~----15~--------------------------------------------|
B|-7~------10~----12~--------------------------------------------|
G|----------------12~--------------------------------------------|
D|-9~------12~---------------------------------------------------|
A|---------------------------------------------------------------|
D|---------------------------------------------------------------|


[Chorus]

Guitar 1
e|------------------------------------------------|
B|------------------------------------------------|
G|-7-------------7-----------7-------------7------|
D|-7--x16-9------5------xxxx-7--x16-9------5------|
A|-5------7--x16-5--x28-xxxx-5------7--x16-5--x28-|
D|--------7------5------xxxx--------7------3------|

Guitar 2
e|------------------------------------------------|
B|------------------------------------------------|
G|-7-------------------------7--------------------|
D|-7--x16-9------9--x28------7--x16-9--x16-9--x28-|
A|-5------7--x16-5-----------5------7------5------|
D|--------7------5------------------7------5------|


[Re-Intro]

Guitar 1
e|--------------------------------|
B|--------------------------------|
G|------7-------------------------|
D|-xxxx-7--x32-5------7-----------|
A|-xxxx-5------5--x24-7--x8-------|
D|-xxxx--------5------7-----------|

Guitar 2
e|------10-10-10----------10-10-10-------------------------|------------------|
B|------10-10-10-10-10-10-10-10-10-10-10-10-10-10-10-10-10-|-10--x20--12--x12-|
G|------7--7--7--6--6--6--7--7--7--6--6--6--6--6--6--6--6--|-7----------------|
D|---------------------------------------------------------|------------------|
A|---------------------------------------------------------|------------------|
D|------------------------------------------------------2x-|------------------|


[Verse 2]

Guitar 1
e|----------------------------------------------------------|
B|----------------------------------------------------------|
G|-----------------------------7----------------------------|
D|-7--x16----------------------7--x16-7------9------7-------|
A|-5------7--x16-9--x16-7--x16-5------7--x16-9--x16-7--x16--|
D|--------7------9------7-------------7------9------7-------|
   *      *      *      *

Guitar 2
e|-------------------------------------------------------------------------------------|
B|-------------------------------------------------------------------------------------|
G|---------------------------------------------------------7------6------7------6------|
D|--------7-7-7------------------------4--x8---------2--x8----x16----x16----x16----x16-|
A|-5--x13-------7--x11-7-9-7-5-2-2-2-2-------0-0-0-0-------5------4------5------4------|
D|-------------------------------------------------------------------------------------|


[Pre-Chorus 2]

(guitar 2 only):
e|------------------------------------------------|
B|----------------------------1010----------------|
G|------------------------------------------------|
D|-2~----4~----5~----7--------7-7-----------------|
A|-2~----4~----5~----7--7-7-7-7-7-----------------|
D|-2~----4~----5~----7--7-7-7-7-7-----------------|
                        * * * *

[Chorus]

Guitar 1
e|------------------------------------------------|
B|------------------------------------------------|
G|-7-------------7-----------7-------------7------|
D|-7--x16-9------5------xxxx-7--x16-9------5------|
A|-5------7--x16-5--x28-xxxx-5------7--x16-5--x28-|
D|--------7------5------xxxx--------7------3------|

Guitar 2
e|------------------------------------------------|
B|------------------------------------------------|
G|-7-------------------------7--------------------|
D|-7--x16-9------9--x28------7--x16-9--x16-9--x28-|
A|-5------7--x16-5-----------5------7------5------|
D|--------7------5------------------7------5------|


[Bridge]

Guitar 1
e|-------------------------------|-------------------------1.-|-----------------------2.-||
B|-------------------------------|----------------------------|--------------------------||
G|-------------------------------|----------------------------|--------------------------||
D|-7------9-9-9-9-5------9-9-9-9-|-7------9-9-9-9-5------xxxx-|-7------9-9-9-9-5------7~-||
A|-7--x12-9-9-9-9-5--x16-9-9-9-9-|-7--x12-9-9-9-9-5--x12-xxxx-|-7--x12-9-9-9-9-5--x16-7~-||
D|-7------9-9-9-9-5------9-9-9-9-|-7------9-9-9-9-5------xxxx-|-7------9-9-9-9-5------7~-||

Guitar 2
e|-------------------------------|-------------------------1.-|-----------------------2.-||
B|-------------------------------|----------------------------|--------------------------||
G|----------------7--------------|----------------7-----------|-----------------------6--||
D|-11-----9-9-9-9-5------9-9-9-9-|-11-----9-9-9-9-5------xxxx-|-11-----9-9-9-9-5---------||
A|-7--x12-9-9-9-9-5--x16-9-9-9-9-|-7--x12-9-9-9-9-5--x12-xxxx-|-7--x12-9-9-9-9-5--x16-4~-||
D|-7------9-9-9-9-5------9-9-9-9-|-7------9-9-9-9-5------xxxx-|-7------9-9-9-9-5---------||


[Chorus]

Guitar 1
e|------------------------------------------------|
B|------------------------------------------------|
G|-7-------------7-----------7-------------7------|
D|-7--x16-9------5-----------7--x16-9------5------|
A|-5------7--x16-5--x28------5------7--x16-5--x28-|
D|--------7------5------------------7------5------|

Guitar 2
e|------------------------------------------------|
B|------------------------------------------------|
G|-7-------------------------7--------------------|
D|-7--x16-9------9--x28------7--x16-9--x16-9--x28-|
A|-5------7--x16-5-----------5------7------5------|
D|--------7------5------------------7------5------|


[Outro]

Guitar 1
e|--------------------------------|
B|--------------------------------|
G|------7-------------------------|
D|-xxxx-7--x32-5------7-----------|
A|-xxxx-5------5--x24-7--x8-------|
D|-xxxx--------5------7-----------|

Guitar 2
e|------10-10-10----------10-10-10-------------------------|------------------|
B|------10-10-10-10-10-10-10-10-10-10-10-10-10-10-10-10-10-|-10--x20--12--x12-|
G|------7--7--7--6--6--6--7--7--7--6--6--6--6--6--6--6--6--|-7----------------|
D|---------------------------------------------------------|------------------|
A|---------------------------------------------------------|------------------|
D|------------------------------------------------------2x-|------------------|



************************************

| x  Dead note
| ~  Vibrato
| *  palm mute  

************************************
Suggest correction
Give kudos to tab author, rate the tab!
1 2 3 4 5
comments
print report bad tab
guest
You may want to rate the tab now too:
select rating
Wanna post a correction for this tab? Suggest correction