Oops, an error
Loading. Please wait.

Pink Bass Tab

43 views 18 this week
no commentswrite comment
1 2 3 4 5
3 more votes to show rating
add to favorites
launch autoscroll
font size
0
reset
guitar tuner
Autoscroll
slow
fast
+/-
esc
set tempo
stop
Help us to improve Ultimate-Guitar.com Take our survey!
×
Author
Difficulty
novice
[Intro]

G|-----|-----------------|-----|--------------|-----|-----------------|----------------|-----------------|
D|-----|-----------------|-----|--------------|-----|-----------------|----------------|-----------------|
A|-2-2-|-0-0----00-0-0-0-|-2-2-|-0-0-----00---|-2-2-|-0-0----00-0-0-0-|---------5-5-5-5|-0-0-0-0-0-0-0-0-|
E|-----|-----------------|-----|------------1-|-----|-----------------|-3-3-3-3--------|-----------------|

G|-----|-----------------|----------------|-----------------|
D|-----|-----------------|----------------|-----------------|
A|-2-2-|-0-0----00-0-0-0-|---------5-5-5-5|-0-0-0-0-0-0-0-0-|
E|-----|-----------------|-3-3-3-3--------|-----------------|

[Verse]

G|-----------------|-----------------|
D|-----------------|-----------------|
A|---------------0-|-2-2----22-2-2-0-|   x4
E|-3-3----33-3-3---|-----------------|

[Pre-Chorus]

G|-----------------|-----------------|
D|-----------------|-----------------|
A|---------5-5-5-5-|-0-0-0-0-0-0-0-0-|  X3
E|-3-3-3-3---------|-----------------|

G|-----------------|----------------|
D|-----------------|----------------|
A|---------5-5-5-5-|-0-0-0-0-0------|
E|-3-3-3-3---------|----------------|

[Chorus]

G|-----------------|-----------------|-----------------|-----------------|
D|-----------------|-----------------|-----------------|-----------------|
A|-2-2-2-2-2-2-2-2-|-0-0-0-0-0-0-0-0-|-5-5-5-5-5-5-5-5-|-----------------|
E|-----------------|-----------------|-----------------|-3-3-3-3-3-3-3-3-|

G|-----|-----|-------------------|-----|--------------|---------------------------|
D|-----|-----|-------------------|-----|--------------|---------------------------|
A|-0-0-|-2-2-|-0-0----00-0-0-0-0-|-2-2-|-0-0-----00---|---------------------------|
E|-----|-----|-------------------|-----|------------1-|---------------------------|
 * Note that on the A's at the beginning here it switches to 2/4 time, then back to 4/4 starting on the B's
immediately after that measure

[Verse]

G|-----------------|-----------------|
D|-----------------|-----------------|
A|---------------0-|-2-2----22-2-2-0-|   x4
E|-3-3----33-3-3---|-----------------|

[Pre-Chorus]

G|-----------------|-----------------|
D|-----------------|-----------------|
A|---------5-5-5-5-|-0-0-0-0-0-0-0-0-|  X3
E|-3-3-3-3---------|-----------------|

G|-----------------|----------------|
D|-----------------|----------------|
A|---------5-5-5-5-|-0-0-0-0-0------|
E|-3-3-3-3---------|----------------|

[Chorus]

G|-----------------|-----------------|-----------------|-----------------|
D|-----------------|-----------------|-----------------|-----------------|
A|-2-2-2-2-2-2-2-2-|-0-0-0-0-0-0-0-0-|-5-5-5-5-5-5-5-5-|-----------------|
E|-----------------|-----------------|-----------------|-3-3-3-3-3-3-3-3-|

G|-----|
D|-----|
A|-0-0-|
E|-----|
*still in 2/4 time here, switches back right after that measure

[Bridge]

G|---|---|---|---|
D|---|---|---|---|
A|-2-|-0-|-5-|---|  X2
E|---|---|---|-3-|

[Pre-Chorus]

G|-----------------|-----------------|
D|-----------------|-----------------|
A|---------5-5-5-5-|-0-0-0-0-0-0-0-0-|  X3
E|-3-3-3-3---------|-----------------|

G|-----------------|----------------|
D|-----------------|----------------|
A|---------5-5-5-5-|-0-0-0-0-0------|
E|-3-3-3-3---------|----------------|


[Chorus]

G|-----------------|-----------------|-----------------|-----------------|
D|-----------------|-----------------|-----------------|-----------------|
A|-2-2-2-2-2-2-2-2-|-0-0-0-0-0-0-0-0-|-5-5-5-5-5-5-5-5-|-----------------|  X3
E|-----------------|-----------------|-----------------|-3-3-3-3-3-3-3-3-|

[Outro]

G|-----|-----------------|-----|--------------|-----|-----------------|----------------|-----------------|
D|-----|-----------------|-----|--------------|-----|-----------------|----------------|-----------------|
A|-2-2-|-0-0----00-0-0-0-|-2-2-|-0-0-----00---|-2-2-|-0-0----00-0-0-0-|---------5------|-0---------------|
E|-----|-----------------|-----|------------1-|-----|-----------------|-3--------------|-----------------|
Suggest correction
Give kudos to tab author, rate the tab!
1 2 3 4 5
comments
print report bad tab
guest
You may want to rate the tab now too:
select rating
Wanna post a correction for this tab? Suggest correction