Oops, an error
Loading. Please wait.

Pink Tab

106 views 9 this week
no commentswrite comment
1 2 3 4 5
3 more votes to show rating
add to favorites
launch autoscroll
font size
0
reset
how to read this tab
guitar tuner
Autoscroll
slow
fast
+/-
esc
set tempo
stop
Help us to improve Ultimate-Guitar.com Take our survey!
×
Author
Difficulty
Tuning
intermediate
D A D G B E
-----------------------------------------------------------------------------
                           PINK - Waterparks
-----------------------------------------------------------------------------
Tuning: Drop D (DADGBe)

Check out my guitar cover on YouTube!: https://www.youtube.com/watch?v=5Aa57mmpFRI

Guitar 1 - Awsten Knight
Guitar 2 - Geoff Wigington

Guitar 1
e|-----------------------------------------------------------------(0~)----------------------|------19-17-|
B|-----------------------------------------------------------------(0~)----------------------|-15h17------|
G|---------------------(silence)-----------------------------------(0~)----------------------|------------|
D|-----------------------------------------------------------------(0~)----------------------|------------|
A|-----------------------------------------------------------------(0~)----------------------|------------|
D|-----------------------------------------------------------------(0~)----------------------|---------4x-|
                           Strum by the nut of the guitar^                     Electronic part^
Guitar 2
e|------------------------------------------------------------------------------------------------|
B|------------------------------------------------------------------------------------------------|
G|--------6/7-9-11-7-------------------------6/7-9-11-7------------------------6/7-9-14-11--------|
D|-9-9---------------7-7----x-7-7-7-7-9-9---------------7-7----x-7-x-----9-9---------------7-7----|
A|-9-9----4/5-7-9--5-7-7----x-7-7-7-7-9-9----4/5-7-9--5-7-7----x-7-x-----9-9---4/5-7-12-9--7-7----|
D|-9-9---------------7-7----x-7-7-7-7-9-9---------------7-7----x-7-x-----9-9---------------7-7----|

Guitar 2 cont'd
e|------------------------------------------------|
B|------------------------------------------------|
G|--------------------7-7-7-7---------------------|
D|--x-7-7-7-7-5-5-5-5-7-7-7-7-7-7-7-7-7-7-7-7-----|
A|--x-7-7-7-7-5-5-5-5-5-5-5-5-7-7-7-7-7-7-7-7-----|
D|--x-7-7-7-7-5-5-5-5---------7-7-7-7-7-7-7-7-----|

Verse - silence

Prechorus:

Guitar 1
e|-----------------------------------------------------------------------------------------------|
B|-----------------------------------------------------------------------------------------------|
G|-----------------------------------------------------------------------------------------------|
D|---------7-7-7-7---------------7-7-7-7---------------7-7-7-7---------------7-7-7-7-----------7-|
A|-5-5-5-5-5-5-5-5-7-----5-5-5-5-5-5-5-5-7-----5-5-5-5-5-5-5-5-7-----5-5-5-5-5-5-5-5-7-7-7-7-7-7-|
D|-5-5-5-5---------7--x8-5-5-5-5---------7--x8-5-5-5-5---------7--x8-5-5-5-5---------7-7-7-7-7-7-|
   * * * * * * * * *     * * * * * * * * *     * * * * * * * * *     * * * * * * * * * *
Guitar 2
e|----19-17--------17----------4x-|------10h12/14~---12~---14~----|
B|--19-----19-17-19--19-----------|-12p10---------15~---15~---15~-|
G|--------------------------------|-------------------------------|
D|--------------------------------|-------------------------------|
A|--------------------------------|-------------------------------|
D|--------------------------------|----------------------------3x-|
     ^This is hard to hear^    ^Electronic parts^

Chorus (both guitars):
e|---------------------------------------------------------|
B|---------------------------------------------------------|
G|-------------7-----------------------7-------------------|
D|-9-----7-----7--x8-5-----9-----7-----7--x8-5-----7-7-7-7-|
A|-9--x8-7--x8-5-----5--x8-9--x8-7--x8-5-----5--x8-7-7-7-7-|
D|-9-----7-----------5-----9-----7-----------5-----7-7-7-7-|

Re-Intro:

Guitar 1
e|--------------------------------------------------------(0~)-|
B|--------------------------------------------------------(0~)-|
G|---------------------(silence)--------------------------(0~)-|
D|--------------------------------------------------------(0~)-|
A|--------------------------------------------------------(0~)-|
D|--------------------------------------------------------(0~)-|

Guitar 2
e|------------------------------------------------------------------------|
B|------------------------------------------------------------------------|
G|--------6/7-9-11-7-------------------------6/7-9-14-11------------------|
D|-9-9---------------7-7----x-7-7-7-7-9-9----------------7-7----x-7-x-----|
A|-9-9----4/5-7-9--5-7-7----x-7-7-7-7-9-9----4/5-7-12-9--7-7----x-7-x-----|
D|-9-9---------------7-7----x-7-7-7-7-9-9----------------7-7----x-7-x-----|

Verse Pt. 1 - silence both guitars

Verse Pt. 2 (guitar 2 only)
e|-(0~)------------------------------------------------------------------------|
B|-(0~)------------------------------------------------------------------------|
G|-(0~)------------------------------------------------------------------------|
D|-(0~)------------------------------------------------------------------------|
A|-(0~)-5-5----5-5-5-5-5-9-9----9-9-9-9-9-5-5----5-5-5-5-5-9-9----7-7-7-7-7----|
D|-(0~)-5-5----5-5-5-5-5-9-9----9-9-9-9-9-5-5----5-5-5-5-5-9-9----7-7-7-7-7----|

Prechorus 2:

Guitar 1
e|-----------------------------------------------------------------------------------------------|
B|-----------------------------------------------------------------------------------------------|
G|-----------------------------------------------------------------------------------------------|
D|---------7-7-7-7---------------7-7-7-7---------------7-7-7-7---------------7-7-7-7-----------7-|
A|-5-5-5-5-5-5-5-5-7-----5-5-5-5-5-5-5-5-7-----5-5-5-5-5-5-5-5-7-----5-5-5-5-5-5-5-5-7-7-7-7-7-7-|
D|-5-5-5-5---------7--x8-5-5-5-5---------7--x8-5-5-5-5---------7--x8-5-5-5-5---------7-7-7-7-7-7-|
   * * * * * * * * *     * * * * * * * * *     * * * * * * * * *     * * * * * * * * * *
Guitar 2
e|----19-17--------17----------4x-|------10h12/14~---12~---14~----|
B|--19-----19-17-19--19-----------|-12p10---------15~---15~---15~-|
G|--------------------------------|-------------------------------|
D|--------------------------------|-------------------------------|
A|--------------------------------|-------------------------------|
D|--------------------------------|----------------------------3x-|
                            ^Electronic parts^
Chorus (both guitars):
e|------------------------------------------------------|
B|------------------------------------------------------|
G|-------------7-----------------------7----------------|
D|-9-----7-----7--x8-5-----9-----7-----7--x8-5-----7777-|
A|-9--x8-7--x8-5-----5--x8-9--x8-7--x8-5-----5--x8-7777-|
D|-9-----7-----------5-----9-----7-----------5-----7777-|

Bridge: silent both guitar

Prechorus 3
e|-----------------------------------------------------------------------------------------------|
B|-----------------------------------------------------------------------------------------------|
G|-----------------------------------------------------------------------------------------------|
D|---------7-7-7-7---------------7-7-7-7---------------7-7-7-7---------------7-7-7-7-----------7-|
A|-5-5-5-5-5-5-5-5-7-----5-5-5-5-5-5-5-5-7-----5-5-5-5-5-5-5-5-7-----5-5-5-5-5-5-5-5-7-7-7-7-7-7-|
D|-5-5-5-5---------7--x8-5-5-5-5---------7--x8-5-5-5-5---------7--x8-5-5-5-5---------7-7-7-7-7-7-|
   * * * * * * * * *     * * * * * * * * *     * * * * * * * * *     * * * * * * * * * *
Guitar 2
e|----19-17-----*--17----------4x-|------10h12/14~---12~---14~----|
B|--19-----19-17-19--19-----------|-12p10---------15~---15~---15~-|
G|--------------------------------|-------------------------------|  * = Stop here
D|--------------------------------|-------------------------------|    on the 4th time
A|--------------------------------|-------------------------------|
D|--------------------------------|----------------------------3x-|
                            ^Electronic parts^

Bridge Pt. 2:

Guitar 1
e|---------------------------------------------------------------------------------------------|
B|---------------------------------------------------------------------------------------------|
G|--------------(silence)----------------------------------------------4-----2-----7-----------|
D|---------------------------------------------------------------------4--x8-2--x8-7--x8-5-----|
A|---------------------------------------------------------------------2-----0-----5-----5--x8-|
D|---------------------------------------------------------------------------------------5-----|

Guitar 2
e|-----12-10----12-10----12-10----10-9-----12-10----12-10----12-10-----------------------------|
B|---------------------------------------------------------------------------------------------|
G|---11-------11-------11-------11-------11-------11-------11----------4-----2-----7-----------|
D|-12-------12-------12-------12-------12-------12-------12------------4--x8-2--x8-7--x8-5-----|
A|---------------------------------------------------------------------2-----0-----5-----5--x8-|
D|---------------------------------------------------------------------------------------5-----|
                   ^clean tone^                    Back to distortion^
Chorus (both guitars):
e|---------------------------------------------------------|
B|---------------------------------------------------------|
G|-------------7-----------------------7-------------------|
D|-9-----7-----7--x8-5-----9-----7-----7--x8-5-----7-7-7-7-|
A|-9--x8-7--x8-5-----5--x8-9--x8-7--x8-5-----5--x8-7-7-7-7-|
D|-9-----7-----------5-----9-----7-----------5-----7-7-7-7-|

Outro:

Guitar 1
e|-------------------------------------------------------------------(0~)-------------------------|
B|-------------------------------------------------------------------(0~)-------------------------|
G|---------------------(silence)-------------------------------------(0~)-------------------------|
D|-------------------------------------------------------------------(0~)-------------------------|
A|-------------------------------------------------------------------(0~)-------------------------|
D|-------------------------------------------------------------------(0~)-------------------------|

Guitar 2
e|------------------------------------------------------------------------------------------------|
B|------------------------------------------------------------------------------------------------|
G|--------6/7-9-11-7-------------------------6/7-9-11-7------------------------6/7-9-14-11--------|
D|-9-9---------------7-7----x-7-7-7-7-9-9---------------7-7----x-7-x-----9-9---------------7-7----|
A|-9-9----4/5-7-9--5-7-7----x-7-7-7-7-9-9----4/5-7-9--5-7-7----x-7-x-----9-9---4/5-7-12-9--7-7----|
D|-9-9---------------7-7----x-7-7-7-7-9-9---------------7-7----x-7-x-----9-9---------------7-7----|

Guitar 2 cont'd
e|----------------------------------|
B|----------------------------------|
G|--------------------7~------------|
D|--x-7-7-7-7-5~------7~------7~----|
A|--x-7-7-7-7-5~------5~------7~----|
D|--x-7-7-7-7-5~--------------7~----|
_______________________________________________

* = palm mute
/ = slide to and from note
Suggest correction
Give kudos to tab author, rate the tab!
1 2 3 4 5
comments
print report bad tab
guest
You may want to rate the tab now too:
select rating
Wanna post a correction for this tab? Suggest correction