Oops, an error
Loading. Please wait.

Stupid For You Tab

556 views 48 this week
no commentswrite comment
1 2 3 4 5
1 last vote to show rating
add to favorites
launch autoscroll
font size
0
reset
how to read this tab
guitar tuner
Autoscroll
slow
fast
+/-
esc
set tempo
stop
Help us to improve Ultimate-Guitar.com Take our survey!
×
Author
Difficulty
novice
-----------------------------------------------------------------------------
                            STUPID FOR YOU - Waterparks
-----------------------------------------------------------------------------
E-mail: a7xlucas@live.com

Tuning: Standard (EADGBe)

Guitar 1 - Awsten Knight
Guitar 2 - Geoff Wigington

Check out my guitar cover on YouTube!: https://www.youtube.com/watch?v=nYPXHGizkeI

Intro (guitar 1 only):
e|-------------------4-4---------------4-4---------------4-4---------------|
B|-5-5---------2-----5-5---------2-----5-5---9-9---2-----5-5---0-0---2-----|
G|-6-6---1-1---2-----6-6---1-1---2-----6-6---------2-----6-6---1-1---2-----|
D|-6-6---2-2---2--x8-6-6---2-2---2--x8-6-6---9-9---2--x8-6-6---2-2---2--x8-|
A|-4-4---2-2---0-----4-4---2-2---0-----4-4---7-7---0-----4-4---2-2---0-----|
D|-------0-0---------------0-0---------------------------------------------|

Verse (guitar 1 only):

Guitar 1, 4x
e|------------------------------|
B|------------------------------|
G|-9-9----4-4---4---2-2--2-2--2-|
D|-9-9--x-4-4---4---2-2--2-2--2-|
A|-7-7--x-2-2---2---0-0--0-0--0-|
E|------------------------------|

Chorus:

Guitar 1, 4x
e|-------------------------------------------------|
B|-5-5---------2-----------------------------------|
G|-6-6---1-1---2-----------------------------------|
D|-6-6---2-2---2--x8-------------------------------|
A|-4-4---2-2---0-----------------------------------|
E|-------0-0---------------------------------------|

Guitar 2, 4x
e|---------------------------------------------------|
B|---------------------------------------------------|
G|-9-9----4-4----6-----------------------------------|
D|------------------x8-------------------------------|
A|-7-7----2-2----4-----------------------------------|
E|-0-0-----------------------------------------------|

Postchorus, 2x:

Guitar 1
e|--------------------------------------------------|
B|--------------------------------------------------|
G|-6-6---4-4---2-2---2-2---6-6---4-4---2-2---2-2----|
D|-6-6---4-4---2-2---2-2---6-6---4-4---2-2---2-2----|
A|-4-4---2-2---0-0---0-0---4-4---2-2---0-0---0-0----|
E|--------------------------------------------------|

Guitar 2
e|-----------------------------------------------|
B|--------------10-9~----------------------------|
G|-9-9-9~--9-11-------9-9-9~---9-9b11r-----------|
D|---------------------------9-------------------|
A|-----------------------------------------------|
E|-----------------------------------------------|

Repeat:
Verse

Verse pt. 2 (orchestra thing transcribed to guitar, guitar 2 only):
e|-------------------||------------------------------|----------------------1.-|----------------------2.-||
B|-------------------||-12---------------------------|-12----------------------|-12----------------------||
G|-------------------||-----11h13---11-11-11h13-11\9-|----11h13-8-8-8-8h9-8----|----11h13---8-8-8h9-8----||
D|-------------------||------------------------------|----------------------11-|----------------------11-||
A|-4~----2~----0~----||------------------------------|-------------------------|-------------------------||
E|-------------------||------------------------------|-------------------------|-------------------------||

Repeat:
Chorus

Chorus Pt 2, 2x:

Guitar 1
e|-----------------------|
B|-------------2---------|
G|-6-----4-----2---------|
D|-6--x8-4--x8-2--x16----|
A|-4-----2-----0---------|
E|-----------------------|

Guitar 2
e|-----------------------|
B|-----------------------|
G|-9-----8-----9---------|
D|----x8----x8----x16----|
A|-7-----6-----7---------|
E|-----------------------|

Bridge (guitar 1 only): 
e|----------------------------------------------------------------------------------------------|
B|----------------------------------------------------------------------------------------------|
G|-6~--4-4---2-2---2-2---6-6---4-4---2-2---2-2---6-6---4-4---2-2---2-2---6-6---4-4---2-2---2-2--|
D|-6~--4-4---2-2---2-2---6-6---4-4---2-2---2-2---6-6---4-4---2-2---2-2---6-6---4-4---2-2---2-2--|
A|-4~--2-2---0-0---0-0---4-4---2-2---0-0---0-0---4-4---2-2---0-0---0-0---4-4---2-2---0-0---0-0--|
E|----------------------------------------------------------------------------------------------|

Repeat:
Chorus
Chorus Pt 2
Postchorus 4x
Suggest correction
Give kudos to tab author, rate the tab!
1 2 3 4 5
comments
print report bad tab
guest
You may want to rate the tab now too:
select rating
Wanna post a correction for this tab? Suggest correction