Oops, an error
Loading. Please wait.

Territory Tab

124 views 3 this week
no commentswrite comment
1 2 3 4 5
2 more votes to show rating
add to favorites
launch autoscroll
font size
0
reset
how to read this tab
guitar tuner
Autoscroll
slow
fast
+/-
esc
set tempo
stop
Help us to improve Ultimate-Guitar.com Take our survey!
×
Author
Difficulty
Tuning
intermediate
D A D G B E
-----------------------------------------------------------------------------
                           TERRITORY - Waterparks
-----------------------------------------------------------------------------
Tuning: Standard (EADGBe)

Guitar 1 - Awsten Knight
Guitar 2 - Geoff Wigington

Check out my guitar cover on YouTube!: https://www.youtube.com/watch?v=y-mClSWNKfk

Those chords in the intro may be slightly off, but other than that everything here is 100% correct. Enjoy!

Intro/Verse (guitar 2 only, clean tone), 2x:
e|-9~-------------9~-----------------7~----------9~------------------|
B|-----------------------------------7~----------7~------------------|
G|-7~-------------9~-----------------------------6~------------------|
D|-9~-------------9~-----------------9~------------------------------|
A|-------------------------------------------------------------------|
D|-------------------------------------------------------------------|

Prechorus:

Guitar 1
e|------------------------------------------------------------------|
B|------------------------------------------------------------------|
G|-6-6-------------2-2----------------------------------------------|
D|-6-6-------------2-2-------------4--------------------------------|
A|-4-4-------------0-0-------------4--x16---------------------------|
D|---------------------------------4--------------------------------|

Guitar 2
e|------------------------------------------------------------------|
B|------------------------------------------------------------------|
G|-6-6-------------2-2----------------------------------------------|
D|-6-6-x-x-x-x-x-x-2-2-x-x-x-x-x-x-4--------------------------------|
A|-4-4-x-x-x-x-x-x-0-0-x-x-x-x-x-x-4--x16---------------------------|
D|-----x-x-x-x-x-x-----x-x-x-x-x-x-4------5b6~----------------------|

Chorus:

Guitar 1, 4x
e|---------------------------------------|
B|---------------------------------------|
G|-2-----------4-------------------------|
D|-2--x8-2-----4--x16--------------------|
A|-0-----2--x8-2-------------------------|
D|-------2-------------------------------|

Guitar 2 (clean tone, timing of these notes is a bit tricky to figure out)
e|----12~---------11~------14~--12~-----------12~---------------|
B|---------12~------------------------12~---12---------12~------|
G|--------------------------------------------------------------|
D|--------------------------------------------------------------|
A|--------------------------------------------------------------|
D|--------------------------------------------------------------|

Guitar 2 cont'd (00:41)
e|--14~--12~--------14--12~--11~------14~--12~-------14--12~--11~-------|
B|------------12~-------------------------------12~-----------------12~-|
G|----------------------------------------------------------------------|
D|----------------------------------------------------------------------|
A|----------------------------------------------------------------------|
D|----------------------------------------------------------------------|

Verse 2: 

Guitar 1 (comes in on the 2nd repeat of Guitar 2):
e|---------------------------------------------------------------|
B|---------------------------------------------------------------|
G|---------------------------------------------4-----------------|
D|-2-----6-----4------2-----6-----4--------4-4-4-----------------|
A|-0--x8-4--x8-2--x16-0--x8-4--x8-2--x12-2-2-2-2-----------------|
D|----x8---------------------------------------------------------|
   *     *     *      *     *     *      

Prechorus 2:

Guitar 1
e|------------------------------------------------------------------|
B|------------------------------------------------------------------|
G|-6-6-------------2-2----------------------------------------------|
D|-6-6-------------2-2-------------4--------------------------------|
A|-4-4-------------0-0-------------4--x16---------------------------|
D|---------------------------------4--------------------------------|

Guitar 2
e|------------------------------------------------------------------|
B|------------------------------------------------------------------|
G|-6-6-------------2-2----------------------------------------------|
D|-6-6-x-x-x-x-x-x-2-2-x-x-x-x-x-x-4--------------------------------|
A|-4-4-x-x-x-x-x-x-0-0-x-x-x-x-x-x-4--x16---------------------------|
D|-----x-x-x-x-x-x-----x-x-x-x-x-x-4------5b6~----------------------|

Chorus 2:

Guitar 1, 4x
e|---------------------------------------|
B|---------------------------------------|
G|-2-----------4-------------------------|
D|-2--x8-2-----4--x16--------------------|
A|-0-----2--x8-2-------------------------|
D|-------2-------------------------------|

Guitar 2 (clean tone, timing of these notes is a bit tricky to figure out)
e|----12~---------11~------14~--12~-----------12~---------------|
B|---------12~------------------------12~---12---------12~------|
G|--------------------------------------------------------------|
D|--------------------------------------------------------------|
A|--------------------------------------------------------------|
D|--------------------------------------------------------------|

Guitar 2 cont'd (00:41)
e|--14~--12~--------14--12~--11~------14~--12~-------14--12~--11~-------|
B|------------12~-------------------------------12~-----------------12~-|
G|----------------------------------------------------------------------|
D|----------------------------------------------------------------------|
A|----------------------------------------------------------------------|
D|----------------------------------------------------------------------|

Bridge (1:45):

Guitar 1
e|-----------------------------------------------------|
B|-----------------------------------------------------|
G|-6------2------6------2-----8------------------------|
D|-6--x16-2--x16-6--x16-2--x8-8--x8--------------------|
A|-4------0------4------0-----6------------------------|
D|-----------------------------------------------------|

Guitar 2 (clean tone)
e|-16~---------16~---14~-----14~----16~-------16~-------16~-----14~-----14~----|
B|-----17~-----------------------17-----17~-------17~-------17~-----17~--------|
G|-----------------------------------------------------------------------------|
D|-----------------------------------------------------------------------------|
A|-----------------------------------------------------------------------------|
D|-----------------------------------------------------------------------------|

Break (guitar 2 only, clean tone):
e|--14~--12~--------14--12~--11~------14~--12~-------14--12~--11~-------|
B|------------12~-------------------------------12~---------------------|
G|----------------------------------------------------------------------|
D|----------------------------------------------------------------------|
A|----------------------------------------------------------------------|
D|----------------------------------------------------------------------|

Final Chorus:

Guitar 1, 8x
e|---------------------------------------|
B|---------------------------------------|
G|-2-----------4-------------------------|
D|-2--x8-2-----4--x16--------------------|
A|-0-----2--x8-2-------------------------|
D|-------2-------------------------------|

Guitar 2 (clean tone)
e|--14~--12~--------14--12~--11~------14~--12~-------14--12~--11~-------|
B|------------12~-------------------------------12~---------------------|
G|----------------------------------------------------------------------|
D|----------------------------------------------------------------------|
A|----------------------------------------------------------------------|
D|----------------------------------------------------------------------|

Guitar 2 cont'd (2:21)
e|----12~---------11~------14~--12~----------14-12~--11~--------|
B|---------12~------------------------12~------------------12~--|
G|--------------------------------------------------------------|
D|--------------------------------------------------------------|
A|--------------------------------------------------------------|
D|--------------------------------------------------------------|

Guitar 2 cont'd (2:32)
e|--14~--12~--------14--12~--11~------14~--12~-------14--12~--11~-------|
B|------------12~-------------------------------12~-----------------12~-|
G|----------------------------------------------------------------------|
D|----------------------------------------------------------------------|
A|----------------------------------------------------------------------|
D|----------------------------------------------------------------------|

Outro (guitar 2 only, clean tone, 2:44):
e|--14~--12~--------14--12~--11~------14~--12~-------14--12~--11~-------|
B|------------12~-------------------------------12~---------------------|
G|----------------------------------------------------------------------|
D|----------------------------------------------------------------------|
A|----------------------------------------------------------------------|
D|----------------------------------------------------------------------|
Suggest correction
Give kudos to tab author, rate the tab!
1 2 3 4 5
comments
print report bad tab
guest
You may want to rate the tab now too:
select rating
Wanna post a correction for this tab? Suggest correction