Oops, an error
Loading. Please wait.

Beach Demon Tab

version 1
version 1

Whole song

2,118 views 6 this week
1 commentread comment
1 2 3 4 5
poor
x 1
add to favorites
launch autoscroll
font size
0
reset
how to read this tab
guitar tuner
Tab Pro tools
  • play this tab
  • loop segment
  • change instrument
  • show fretboard
  • metronome
Autoscroll
slow
fast
+/-
esc
set tempo
stop
This is all I have figured out so far.

e|----------------------------------------|
B|----------------------------------------|
G|----------------------------------------|
D|-4-4-4-----2-2-2------------------------|
A|-------2---------0---5-5-5-4---5-5-5-0--|
E|----------------------------------------|
comments
We did not receive enough feedback on this tab! Please rate:
print report bad tab
1 2 3 4 5
1 comment total.
0 reply
Head_With_Face wrote on July 28 2010, 07:20 pm

Try doing this instead:


e|----------------------------------------|
B|----------------------------------------|
G|-11-11--------9-9--------5-5-4-4-4------|
D|-11-11-9-9-9--9-9--5-5-5-5-5-4-4-4------|
A|-9--9--9-9-9--7-7--5-5-5-3-3-2-2-2------|
E|-------7-7-7-------3-3-3----------------|


For the main riff that is.

I want to post or [tab]
guest
You may want to rate the tab now too:
select rating
Please do not post tabs as comments. Select "correction" instead!