Oops, an error
Loading. Please wait.

California Goths Tab

version 3
version 3

Whole song

961 views 3 this week
no commentswrite comment
1 2 3 4 5
please rate
add to favorites
launch autoscroll
font size
0
reset
how to read this tab
guitar tuner
Autoscroll
slow
fast
+/-
esc
set tempo
stop
Help us to improve Ultimate-Guitar.com Take our survey!
×
Author
Difficulty
intermediate
Guitar intro
e|------------------------------------------------------|
B|------------------------------------------------------|order
G|------------------------------------------------------|intro
D|------------------------------------------------------|verse
A|------------------------------------------------------|intro
E|-0--3--5--7--5--3--0----------------------------------|verse
                                                         intro
verse                                                     verse
e|------------------------------------------------------|intro
B|------------------------------------------------------|chorusx6
G|------------------------------------------------------|intro2
D|------------------------------------------------------|verse2
A|-10---9-----------------------------------------------|intro2
E|-8-x4-7x4---------------------------------------------|verse2
                                                         intro2
chorus                                                   verse2
e|------------------------------------------------------|chorus2x6
B|------------------------------------------------------|intro2
G|------------------------------------------------------|verse2
D|------------------------------------------------------|intro2
A|-10---9---7---10---9---5------------------------------|verse2
E|-8-x4-7x4-5x8-8-x4-7x4-3x8----------------------------|intro2
                                                         chorus2x6
intro 2                                                  intro2       
e|------------------------------------------------------|
B|------------------------------------------------------|
G|------------------------------------------------------|
D|-3--5--7--9--7--5--3----------------------------------|
A|-3--5--7--9--7--5--3----------------------------------|
E|-1--3--5--7--5--3--1----------------------------------|

verse 2
e|------------------------------------------------------|
B|------------------------------------------------------|
G|------------------------------------------------------|
D|-10---9-----------------------------------------------|
A|-10---9-----------------------------------------------|
E|-8-x4-7-x4--------------------------------------------|

chorus 2
e|------------------------------------------------------|
B|------------------------------------------------------|
G|------------------------------------------------------|
D|-10---7---7-----10---7---5----------------------------|
A|-10---7---7-----10---7---5----------------------------|
E|-8-x4-9x4-5x8---8-x4-9x4-3x8--------------------------|
Suggest correction
Give kudos to tab author, rate the tab!
1 2 3 4 5
comments
print report bad tab
guest
You may want to rate the tab now too:
select rating
Wanna post a correction for this tab? Suggest correction