Oops, an error
Loading. Please wait.

Dreams Of Grandeur tab

by Wavves
157 views 6 this week
no commentswrite comment
1 2 3 4 5
x 3
add to favorites
×
Save as Personal and add changes to this tab that will be seen only by you. Learn more ›
×
You can save this tab as Personal to edit and correct it or add notes. All changes will be seen only by you. Learn more »
launch autoscroll
font size
0
reset
how to read this tab
guitar tuner
edit
Autoscroll
slow
fast
+/-
esc
set tempo
stop
About this tab version
This is the full song and should be quite straight forward. This is the version from the album "You're Welcome". Was this info helpful? Yes No
[Intro]
e|----------------|--------------|--------------|--------------|-----------------|
B|----------------|----10-12-10--|----10-12-10--|----10-12-10--|----10-12-10-----|
G|----9-11-9-11---|--9-----------|--9-----------|--9-----------|--9--------------|
D|-12-------------|--------------|--------------|--------------|-----------------|
A|----------------|--------------|--------------|--------------|-----------------|
E|----------------|--------------|--------------|--------------|-----------------|

e|------------|------------|------------|---------------------------------------|
B|------------|------------|------------|---------------------------------------|
G|----9-11-9--|----9-11-9--|----9-11-9--|----9-11-9---11----9-------------------|
D|-12---------|-12---------|-12---------|-12------------------------------------|
A|------------|------------|------------|---------------------------------------|
E|------------|------------|------------|---------------------------------------|

[Verse]
This is just Stephen Pope on the distorted bass, but it will sound alright on
guitar too.
e|-----------------------|-----------------------|-------------------------------|--------------------------|
B|-----------------------|-----------------------|-------------------------------|--------------------------|
G|-----------------------|-----------------------|-------------------------------|--------------------------|
D|-----------------------|-----------------------|-------------------------------|--------------------------|
A|-----------------------|-----------------------|-------------------------------|--------------------------|
E|-5-5-5-5-5/7-2-2-2-2-2-|-5-5-5-5-5/7-2-2-2-2-2-|-10-10-10-10-10\7-7-7-7-7-7/10-|10-10-10-10\7-7-7-7-7-7/10|

e|------------------------|------------------------|-------------------------------|-------------|
B|------------------------|------------------------|-------------------------------|-------------|
G|------------------------|------------------------|-------------------------------|-------------|
D|------------------------|------------------------|-------------------------------|-------------|
A|------------------------|------------------------|-------------------------------|-------------|
E|-5-5-5-5-5/7-2-2-2-2-2--|-5-5-5-5-5/7-2-2-2-2-2--|-10-10-10-10-10\7-7-7-7-7-7/10-|10-10-10-10\7|

[Chorus]
Basic power chords
e|-----------------|-------------------------|-----------------|-----------------------|
B|-----------------|-------------------------|-----------------|-----------------------|
G|-7-7-7-7-7-7-7-7-|-------------------------|-7-7-7-7-7-7-7-7-|------------6-6-6-6-6-6|
D|-7-7-7-7-7-7-7-7-|7-7-7-7-7-7-4-4-4-4-4-4--|-7-7-7-7-7-7-7-7-|7-7-7-7-7-7-6-6-6-6-6-6|
A|-5-5-5-5-5-5-5-5-|7-7-7-7-7-7-4-4-4-4-4-4--|-5-5-5-5-5-5-5-5-|7-7-7-7-7-7-4-4-4-4-4-4|
E|-----------------|5-5-5-5-5-5-2-2-2-2-2-2--|-----------------|5-5-5-5-5-5------------|

e|-----------------|------------------------|----------------|
B|-----------------|------------------------|----------------|
G|-7-7-7-7-7-7-7-7-|------------------------|----------------|
D|-7-7-7-7-7-7-7-7-|7-7-7-7-7-7-4-4-4-4-4-4-|3-3-3-3-3-3-2---|
A|-5-5-5-5-5-5-5-5-|7-7-7-7-7-7-4-4-4-4-4-4-|3-3-3-3-3-3-2---|
E|-----------------|5-5-5-5-5-5-2-2-2-2-2-2-|1-1-1-1-1-1-0---|

[Pre-Verse]
Pretty much just Stephen Pope on the distorted bass again, but play along.
e|---------------------|--------------------|--------------------|--------------------|-------------------|
B|---------------------|--------------------|--------------------|--------------------|-------------------|
G|---------------------|--------------------|--------------------|--------------------|-------------------|
D|---------------------|--------------------|--------------------|--------------------|-------------------|
A|---------------------|--------------------|--------------------|--------------------|-------------------|
E|-5-5-5-5-0-5-5-5-5-0-|5-5-5-5-0-5-5-5-5-0-|5-5-5-5-0-5-5-5-5-0-|5-5-5-5-0-5-5-5-5-0-|5-5-5-5-0-5-5-5-5-0|

e|----------------------------------------------------|
B|----------------------------------------------------|
G|---------------------|-------------------------------|
D|---------------------|-------------------------------|
A|---------------------|-------------------------------|
E|-5-5-5-5-0-5-5-5-5-0-|5-5-5-5-0-5-5-5-5-0-5-5-5-5-0-5|

[Verse]
e|-----------------------|-----------------------|-------------------------------|--------------------------|
B|-----------------------|-----------------------|-------------------------------|--------------------------|
G|-----------------------|-----------------------|-------------------------------|--------------------------|
D|-----------------------|-----------------------|-------------------------------|--------------------------|
A|-----------------------|-----------------------|-------------------------------|--------------------------|
E|-5-5-5-5-5/7-2-2-2-2-2-|-5-5-5-5-5/7-2-2-2-2-2-|-10-10-10-10-10\7-7-7-7-7-7/10-|10-10-10-10\7-7-7-7-7-7/10|

e|------------------------|------------------------|-------------------------------|-------------|
B|------------------------|------------------------|-------------------------------|-------------|
G|------------------------|------------------------|-------------------------------|-------------|
D|------------------------|------------------------|-------------------------------|-------------|
A|------------------------|------------------------|-------------------------------|-------------|
E|-5-5-5-5-5/7-2-2-2-2-2--|-5-5-5-5-5/7-2-2-2-2-2--|-10-10-10-10-10\7-7-7-7-7-7/10-|10-10-10-10\7|

[Chorus]
Basic power chords
e|-----------------|-------------------------|-----------------|-----------------------|
B|-----------------|-------------------------|-----------------|-----------------------|
G|-7-7-7-7-7-7-7-7-|-------------------------|-7-7-7-7-7-7-7-7-|------------6-6-6-6-6-6|
D|-7-7-7-7-7-7-7-7-|7-7-7-7-7-7-4-4-4-4-4-4--|-7-7-7-7-7-7-7-7-|7-7-7-7-7-7-6-6-6-6-6-6|
A|-5-5-5-5-5-5-5-5-|7-7-7-7-7-7-4-4-4-4-4-4--|-5-5-5-5-5-5-5-5-|7-7-7-7-7-7-4-4-4-4-4-4|
E|-----------------|5-5-5-5-5-5-2-2-2-2-2-2--|-----------------|5-5-5-5-5-5------------|

e|-----------------|------------------------|----------------|
B|-----------------|------------------------|----------------|
G|-7-7-7-7-7-7-7-7-|------------------------|----------------|
D|-7-7-7-7-7-7-7-7-|7-7-7-7-7-7-4-4-4-4-4-4-|3-3-3-3-3-3-2---|
A|-5-5-5-5-5-5-5-5-|7-7-7-7-7-7-4-4-4-4-4-4-|3-3-3-3-3-3-2---|
E|-----------------|5-5-5-5-5-5-2-2-2-2-2-2-|1-1-1-1-1-1-0---|

[Pre-Verse]
Pretty much just Stephen Pope on the distorted bass again, but play along.
e|---------------------|--------------------|--------------------|--------------------|-------------------|
B|---------------------|--------------------|--------------------|--------------------|-------------------|
G|---------------------|--------------------|--------------------|--------------------|-------------------|
D|---------------------|--------------------|--------------------|--------------------|-------------------|
A|---------------------|--------------------|--------------------|--------------------|-------------------|
E|-5-5-5-5-0-5-5-5-5-0-|5-5-5-5-0-5-5-5-5-0-|5-5-5-5-0-5-5-5-5-0-|5-5-5-5-0-5-5-5-5-0-|5-5-5-5-0-5-5-5-5-0|

e|----------------------------------------------------|
B|----------------------------------------------------|
G|---------------------|-------------------------------|
D|---------------------|-------------------------------|
A|---------------------|-------------------------------|
E|-5-5-5-5-0-5-5-5-5-0-|5-5-5-5-0-5-5-5-5-0-5-5-5-5-0-5|

[Bridge]
Let these cute little chords ring out, then strum the bar chords in down strokes.
e|-10---5---9---|-10---5---9---|-10-10-10-10-10-10-10-10--5-5-5-5-5-5--2-2-2-2-2-2-|-1-1-1-1-1-1--0|
B|-10---5---11--|-10---5---10--|-10-10-10-10-10-10-10-10--5-5-5-5-5-5--2-2-2-2-2-2-|-1-1-1-1-1-1--0|
G|-11---6---11--|-11---6---10--|-11-11-11-11-11-11-11-11--6-6-6-6-6-6--3-3-3-3-3-3-|-2-2-2-2-2-2--1|
D|--------------|--------------|-12-12-12-12-12-12-12-12--7-7-7-7-7-7--4-4-4-4-4-4-|-3-3-3-3-3-3--2|
A|--------------|--------------|-12-12-12-12-12-12-12-12--7-7-7-7-7-7--4-4-4-4-4-4-|-3-3-3-3-3-3--2|
E|--------------|--------------|-10-10-10-10-10-10-10-10--5-5-5-5-5-5--2-2-2-2-2-2-|-1-1-1-1-1-1--0|

There is another layer playing over the top with that eerie, distorted and very "wah" sound:
e|-14-16-12-------|
B|----------15-14-|
G|----------------|
D|----------------|
A|----------------|
E|----------------|

************************************

| /  Slide up
| \  Slide down

************************************

            
            
Suggest correction
Creating personal tab
Creating personal tab
You can edit any tab online and save it as your Personal.

You can edit, replace or remove any tab part or add personal notes – all changes will be seen only by you.

Personal tabs can be accessed anytime from any device, even offline.
Learn more »
Give kudos to tab author, rate the tab!
1 2 3 4 5
comments
print report bad tab
guest
You may want to rate the tab now too:
select rating
Wanna post a correction for this tab? Suggest correction