Oops, an error
Loading. Please wait.

King Of The Beach Tab

version 2
version 2

Whole song

6,585 views 27 this week
2 commentsread comments
1 2 3 4 5
please rate
add to favorites
launch autoscroll
font size
0
reset
how to read this tab
guitar tuner
Autoscroll
slow
fast
+/-
esc
set tempo
stop
Help us to improve Ultimate-Guitar.com Take our survey!
×
Difficulty
intermediate
KING OF THE BEACH
INTRO               
E B B       |             
E B B       |x6
E B B       |               
C# C# G# G# |       
CHORUS
      C#        B     G#
E|-----------------------------------------------------------------------|
B|-----------------------------------------------------------------------|
G|--66666666-------------------------------------------------------------|
D|--66666666--7777--6666-------------------------------------------------|
A|--44444444--7777--6666-------------------------------------------------|
E|------------5555--4444-------------------------------------------------|
 
BRIDGE (NOT SURE IF THIS IS RIGHT)
E|---4--5--7--4--5--7--10--4--5--7--4--5--7—-10------------------------|
B|---6--7--9--6--7--9--12--6--7--9--6--7--9—-12------------------------|
G|---5--6--8--5--6--8--11--5--6--8--5--6--8--11------------------------|
D|---5--6--8--5--6--8--11--5--6--8--5--6--8--11—-----------------------|
A|---------------------------------------------------------------------|
E|---------------------------------------------------------------------|
  
E|----------------------------------------------------------------|
B|----------------------------------------------------------------|
G|--9-------9-------99999999----------------99999999--------------|
D|--9-12-9—-9-12-9—-99999999-12121212-9999--99999999-12121212-9999|
A|--7-12-9—-7-12-9— 77777777-12121212-9999—-77777777-12121212-9999|
E|----10-7----10-7-----------10101010-7777-----------10101010-7777|

OUTRO            
E B B       |              
E B B       |x4
E B B       |
C# C# G# G# |                                                      

E (LET RING)        
      
Suggest correction
Give kudos to tab author, rate the tab!
1 2 3 4 5
comments
print report bad tab
2 comments total.
0 reply
knighty123 72 wrote on May 5 2013, 10:14 am

The chorus chords are fine, but you've tabbed the B chord as 5-7-7 (an A).
It's all good, don't think the bridge sounds right though.

0 reply
airocker08 10 wrote on March 22 2015, 01:58 pm

I think this is the actual bridge:

E|-------------------------------------------
A|-0--0--0--0--0--0--0-0-0-0-0-0-0-0-0-0-0-0-
D|-10-10-10-12-12-12-141414141414141414141414
G|-9--9--9--11-11-11-131313131313131313131313
B|-------------------------------------------
E|-------------------------------------------
keep playing the last chord till it repeats the whole bridge again (didn't keep track of how many times you play the last chord :P

guest
You may want to rate the tab now too:
select rating
Wanna post a correction for this tab? Suggest correction