Oops, an error
Loading. Please wait.

Poor Lenore Tab

5,721 views 6 this week
3 commentsread comments
1 2 3 4 5
1 last vote to show rating
add to favorites
launch autoscroll
font size
0
reset
how to read this tab
guitar tuner
Autoscroll
slow
fast
+/-
esc
set tempo
stop
Help us to improve Ultimate-Guitar.com Take our survey!
×
Author
Difficulty
novice
-------------------------------------------------------------------------------
                             Poor Lenore - WAVVES
-------------------------------------------------------------------------------
Tabbed by: Conor
Email: conor.curran8@gmail.com
Tuning: Standard

This is all I've gotten so far. Maybe someone can add on to it.

Chorus Chords:
e|--5-----7-----3-------------|
B|--5-----7-----3-------------|
G|--6-x3--8-x3--4-x3--1-x3----|
D|--7-----9-----5-----2-------|
A|--7-----9-----5-----2-------|
E|--5-----7-----3-----0-------|

Verse Chords:
e|--12-----3-----7--------|
B|--12-----3-----7--------|
G|--11-x3--4-x3--6-x7-----|
D|--12-----5-----9--------|
A|--12-----5-----9--------|
E|--10-----3-----7--------|

Then this comes in during the "night terrors" part:
e|-----------------------|
B|-----------------------|
G|-----------------------|
D|-----------------------|
A|-5--7--3----5--3--2----|
E|-----------------------|

I'm pretty sure the guitar picking in the beginning is just the verse chords. But I have 
no idea about the solo. If someone has it just comment and I'll add it to the tab.
Suggest correction
Give kudos to tab author, rate the tab!
1 2 3 4 5
comments
print report bad tab
3 comments total.
0 reply
SideYrOn 122 Dec 30, 2012 11:04 PM

intro:
e|-----------------------------|
B|-----------------------------|
G|------x4------x4--1---x8-----|
D|--5-------10------2----------|
A|--5-------10------2----------|
E|--3-------8------------------|

thanks, Anne!

0 reply
meltingcomputer 27 Jul 04, 2013 03:48 PM

The world's a liar
Foolish of me
Misfortune fires
I'll only bleed
Another burden
Another memory
Just keep my mouth shut
I won't say a thing for my ...

Poor Lenore
Poor Lenore
Poor Lenore
Poor Lenore

It faults and falls down
Devil in me
An easy rider
Sharp young athlete
Another burden
Another memory
Just keep my mouth shut
I won't say a thing for my ...

Poor Lenore
Poor Lenore
Poor Lenore
Poor Lenore

Night terros won't leave me alone
They won't leave me alone
Although I love to walk you home
They won't leave me alone

Night terros won't leave me alone
They won't leave me alone
Although I love to walk you home
For my ...

Poor Lenore
Poor Lenore
Poor Lenore
Poor Lenore

0 reply
xAngelsOfHellx 1,434 May 02, 2014 05:57 PM

I play the intro with these chords:
355433 - G
x35553 - C
022100 - E
Verse:
x57775 - D
355433 - G
x24442 - B
Chorus:
577655 - A
x24442 - B
355433 - G
022100 - E

guest
You may want to rate the tab now too:
select rating
Wanna post a correction for this tab? Suggest correction