Oops, an error
Loading. Please wait.

Post Acid Tab

version 1
version 1

Whole song

14,814 views 33 this week
1 commentread comment
1 2 3 4 5
excellent!
x 5
add to favorites
launch autoscroll
font size
0
reset
how to read this tab
guitar tuner
Tab Pro tools
  • play this tab
  • loop segment
  • change instrument
  • show fretboard
  • metronome
×
Best way to learn
"Post Acid"
Autoscroll
slow
fast
+/-
esc
set tempo
stop
Contributor
Difficulty
novice
Ok, this is how the guys playing in it in this video. http://www.youtube.com/watch?v=5OMWi0fdSdU
as far as i can tell


  Misery
Will you comfort me?
In my time of need
Would you understand?

Understand, won't you understand?
In my time of need
Would you understand?
e-0--0--0---------------------|
B-0--2--2---------------------|
G-1--3--2---------------------|
D-2--4--2---------------------|
A-2-----0---------------------|
E-0---------------------------|

That I'm just havin fun
That I'm just havin fun

e--0-4-2-0--0--------------|
B--2--------0--------------|    * I think at some points he makes the e into
G--3--------1--------------|      an e/a with his pinkie so it would be
D--4--------2--------------|      022200 *
A-----------2--------------|
E-----------0--------------|

With you
With you
With you
With you
e-0--7--5--0--5--------|
B-0--7--5--0--5--------|
G-1--8--6--1--6--------|
D-2--9--7--2--7--------|
A-2--9--7--2--7--------|
E-0--7--5--0--5--------|

Hold my hand
Won't you hold my hand
In my time of need
Would you understand?

Understand, won't you understand
In my time of need
Would you understand?
e-0--0--0---------------------|
B-0--2--2---------------------|
G-1--3--2---------------------|
D-2--4--2---------------------|
A-2-----0---------------------|
E-0---------------------------|

That I'm just havin fun
That I'm just havin fun
That I'm just havin fun
That I'm just havin fun
e--0-4-2-0--0--------------|
B--2--------0--------------|
G--3--------1--------------|
D--4--------2--------------|
A-----------2--------------|
E-----------0--------------|

With you
With you
With you
With you
e-0--7--5--0--5--------|
B-0--7--5--0--5--------|
G-1--8--6--1--6--------|
D-2--9--7--2--7--------|
A-2--9--7--2--7--------|
E-0--7--5--0--5--------|

And then at the end where he's just kind of half saying you
e-0--5-----------|
B-0--5-----------|
G-1--6-----------| Just some e's and some a's
D-2--7-----------|
A-2--7-----------|
E-0--5-----------|

With You
e-0--5-----------|
B-0--5-----------|
G-1--6-----------|
D-2--7-----------|
A-2--7-----------|
E-0--5-----------|
comments
print report bad tab
1 comment total.
0 reply
xAngelsOfHellx wrote on August 1 2015, 05:11 pm

E/A is actually Esus4, just in case you were wondering.

I want to post or [tab]
guest
You may want to rate the tab now too:
select rating
Please do not post tabs as comments. Select "correction" instead!