Oops, an error
Loading. Please wait.

To The Dregs Tab

version 1
version 1

Whole song

7,088 views 6 this week
2 commentsread comments
1 2 3 4 5
x 7
add to favorites
launch autoscroll
font size
0
reset
how to read this tab
guitar tuner
Autoscroll
slow
fast
+/-
esc
set tempo
stop
Help us to improve Ultimate-Guitar.com Take our survey!
×
myspace.com/wavves

Tabbed by:Austin Bridges


Tuning:Standard

 

Intro:






e|-------------------------------------------------------------|
B|-------------------------------------------------------------|
G|-------------------------------------------------------------|
D|--8--7--8--7----3--7----8--7--8--7----3--7-------------------|
A|--8--7--8--7----3--7----8--7--8--7----3--7-------------------|
E|--6--5--6--5----1--5----6--5--6--5----1--5-------------------|



Repeat
Suggest correction
comments
print report bad tab
2 comments total.
0 reply
oglockwood 10 May 06, 2009 10:44 PM

there's a C in there too

+1 reply
meltingcomputer 27 Jul 04, 2013 02:47 PM

The C in there is
e|----8-----|
B|----8-----|
G|----8-----|
D|----10----|
A|----10----|
E|----8-----|

guest
You may want to rate the tab now too:
select rating
Wanna post a correction for this tab? Suggest correction