Oops, an error
Loading. Please wait.

Majestic Tab

version 1
version 1

Intro

Whole song

  • Learned by myself and i think it is the most accurate tab yet.
16,218 views 93 this week
no commentswrite comment
1 2 3 4 5
x 10
add to favorites
launch autoscroll
font size
0
reset
how to read this tab
guitar tuner
Autoscroll
slow
fast
+/-
esc
set tempo
stop
Help us to improve Ultimate-Guitar.com Take our survey!
×
Author
Difficulty
novice
[Intro]
e|---------------------------------------------------------------------------|
B|-----5/7-7-7-7-7--7-7-7-7--7-7-7-7--5-3-3p0~~~~~-----3/5--5-5-5-5--5-5-5-5-|
G|-7~~~----------------------------------------------------------------------|
D|---------------------------------------------------------------------------|
A|---------------------------------------------------------------------------|
E|---------------------------------------------------------------------------|

e|----------------------------------------------------------------------|
B|--5-5-5--3-2-----------------5/7--7-7-7-7--7-7-7-7--7-7-7-7--5-3-3p0~~|
G|-------------4-2~~~~~---7~~~~-----------------------------------------|
D|----------------------------------------------------------------------|
A|----------------------------------------------------------------------|
E|----------------------------------------------------------------------|

e|------------------------------------------------------------------|
B|-2-3~~~~~~-----3/5-5-5-5-5--5-5-5-5--5-5-5--3-2-------------------|
G|------------------------------------------------4-2~~~~~----------|
D|------------------------------------------------------------------|
A|------------------------------------------------------------------|
E|------------------------------------------------------------------|

Band website: http://waxfang.com/

Majestic: http://www.youtube.com/watch?v=xYSVFy2UHaA

************************************

| p  Pull-off
| /  Slide up
| ~  Vibrato

************************************
Suggest correction
comments
print report bad tab
guest
You may want to rate the tab now too:
select rating
Wanna post a correction for this tab? Suggest correction