Oops, an error
Loading. Please wait.

Majestic Tab

version 1
version 1

Whole song

  • Learned by myself and i think it is the most accurate tab yet.
151 views 18 this week
no commentswrite comment
1 2 3 4 5
3 more votes to show rating
add to favorites
launch autoscroll
font size
0
reset
how to read this tab
guitar tuner
Autoscroll
slow
fast
+/-
esc
set tempo
stop
Help us to improve Ultimate-Guitar.com Take our survey!
×
Author
Difficulty
novice
About this tab version
Learned by myself and i think it is the most accurate tab yet. Was this info helpful? Yes No
standard tuning


[Intro]
    D
e|-2---2---2---2-------------------------------------------------------------|
B|--3---3---3---3------------------------------------------------------------|
G|---2---2---2---2-----------------------------------------------------------| x15
D|---------------------------------------------------------------------------|
A|---------------------------------------------------------------------------|
E|---------------------------------------------------------------------------|

e|-----------------------------------------------------------------------------------------------|
B|----5/7-7-7-7-7-7-7-7-7-7-7-7-7-7-7-7-7--5--3-3p0---3/5-5-5-5-5-5-5-5-5-5-5-5-3-2--------------|
G|-7--------------------------------------------------------------------------------4-2----------| x2
D|-----------------------------------------------------------------------------------------------|
A|-----------------------------------------------------------------------------------------------|
E|-----------------------------------------------------------------------------------------------|

e|---------------------2---2---2---2---------------------------0---0---0---0-----|
B|-3---3---3---3--------3---3---3---3------3---3---3---3--------2---2---2---2----|
G|--4---4---4---4--------2---2---2---2------4---4---4---4--------2---2---2---2---|
D|---4---4---4---4---------------------------4---4---4---4-----------------------|
A|-------------------------------------------------------------------------------|
E|-------------------------------------------------------------------------------|

e|-2---2---2---2-----3---3---3---3-----0---0---0---0-----2---2---2---2-------|
B|--3---3---3---3-----3---3---3---3-----2---2---2---2-----3---3---3---3------|
G|---2---2---2---2-----0---0---0---0-----2---2---2---2-----2---2---2---2-----| 
D|---------------------------------------------------------------------------|
A|---------------------------------------------------------------------------|
E|---------------------------------------------------------------------------|



 
[Verse]

e|-5---------3---------5---------5--------------------------------------------|
B|-7---------3---------5---------7--------------------------------------------|
G|-7--x12----4--x12----6--x12----7--x12---------------------------------------| x2
D|-7---------5---------7---------7--------------------------------------------|
A|-5---------5---------7---------5--------------------------------------------|
E|-----------3---------5------------------------------------------------------|

e|-2---------5--------2---------5--------------------------------------------|
B|-3---------7--------3---------5--------------------------------------------|
G|-4--x12----7-x12----4--x12----6--x12---------------------------------------|
D|-4---------7--------4---------7--------------------------------------------|
A|-2---------5--------2---------7--------------------------------------------
E|------------------------------5--------------------------------------------|

e|-5---------3---------5---------5-------------------------------------------|
B|-7---------3---------5---------7-------------------------------------------|
G|-7--x12----4--x12----6--x12----7--x12--------------------------------------| 
D|-7---------5---------7---------7-------------------------------------------|
A|-5---------5---------7---------5-------------------------------------------|
E|-----------3---------5-----------------------------------------------------|
 


[Solo]

e|-UB--------------|-------------------------|-UB-----------------------------------|
B|-7---brp---b--rb-|--h----------------------|-7---brp---b--rb---------h-p-s--------|
G|-9---9--7--9--9--|-7-9--------h-p-s--------|-9---9--7--9--9--7-9--7-7-9-7\6-------|
D|-----------------|-----7--5--5-7-5\4-------|--------------------------------7---s-|
A|-----------------|-------------------5---s-|----------------------------------7-\-|
E|-----------------|---------------------5-\-|--------------------------------------|

e|-UB------------------------------------------------------|
B|-7-------------------------------------------------------|
G|-9--7-----------7---7-9-----s--------h-p-s---------------|
D|-------9--9-7-9---9-----7--7\-5---5-5-7-5\4--------4-----|
A|---------------------------------------------5-------5---|
E|------------------------------------------------5------5-|


e|-UB-UB-UB-UB-UB--------------------------------------------|
B|-7--7--7--7--7-rp--------b-10-rbp-----s------s-----b-r---s-|
G|-9--9--9--9--9---7--9-7--9----9--7-9-9\11--11\12--12---11\-|
D|-----------------------------------------------------------|
A|-----------------------------------------------------------|
E|-----------------------------------------------------------|


[Verse 2]

e|-5---------3---------5-------------------------------------|
B|-7---------3---------5-------------------------------------|
G|-7--x12----4--x12----6--x12--------------------------------| 
D|-7---------5---------7-------------------------------------|
A|-5---------5---------7-------------------------------------|
E|-----------3---------5-------------------------------------|


[Outro]
      D            G            A            D
e|----2------------3------------0------------2---------------
B|----3------------3------------2------------3---------------| STRUM PATTERN
G|----2------------0------------2------------2---------------| 
D|-----------------0------------2----------------------------| DDUDUD DDUDUD DDUDUD DDUDUD
A|-----------------2------------0----------------------------|
E|-----------------3-----------------------------------------|
      Bm           D            Bm           A 
e|-----2-----------5-------------2-----------0-------------------------------|
B|-----3-----------7-------------3-----------2-------------------------------|
G|-----4-----------7-------------4-----------2-------------------------------|
D|-----4-----------7-------------4-----------2-------------------------------|
A|-----2-----------5-------------2-----------0-------------------------------|
E|---------------------------------------------------------------------------|
      D            G            A            D
e|----2------------3------------0------------2---------------
B|----3------------3------------2------------3---------------| 
G|----2------------0------------2------------2---------------| PLAY UNTILL FINISH
D|-----------------0------------2----------------------------| 
A|-----------------2------------0----------------------------|
E|-----------------3-----------------------------------------|
      

*******************************************************

| x   Dead note
| g   Grace note
| (n) Ghost note
| h   Hammer-on
| p   Pull-off
| r   Release
| >   Accented note
| t   Tapping
| b   Bend
| br  Bend release
| pb  Pre-bend
| pbr Pre-bend release
| /   Slide up
| \   Slide down
| ~   Vibrato
| s   Slap
| P   Pop
| PM  Palm mute
| TR  Trill
| N   Tremolo

*******************************************************
Suggest correction
Give kudos to tab author, rate the tab!
1 2 3 4 5
comments
print report bad tab
guest
You may want to rate the tab now too:
select rating
Wanna post a correction for this tab? Suggest correction