Oops, an error
Loading. Please wait.

Que Sera Bass Tab

version 1
version 1

Whole song

Interactive

28 views 1 this week
no commentswrite comment
1 2 3 4 5
3 more votes to show rating
add to favorites
launch autoscroll
font size
0
reset
guitar tuner
Autoscroll
slow
fast
+/-
esc
set tempo
stop
Help us to improve Ultimate-Guitar.com Take our survey!
×
Author
Difficulty
novice
--------------------------------------------------------------------------
                            Artist - Wax Taylor 
                          **********************
                             Song - Que Sera 
                            *****************
                           Tabbed By - Ayreon77
                          **********************
--------------------------------------------------------------------------
Tuning = Standard             


RIFF 1
*******
G|---------------------|---------------------|---------------------|------------------|
D|--------9-7-9--9-7---|--------9-7-9--9-7---|--------9-7-9--9-7---|--------9-9-9-7---|
A|------9------------9-|------9------------9-|------9------------9-|------9---------9-|
E|-7-7-----------------|-7-7-----------------|-7-7-----------------|-7-7--------------|

00:15
G|---------------------|---------------------|---------------------|------------------------|
D|--------9-7-9--9-7---|--------9-7-9--9-7---|--------9-7-9--9-7---|------------------------|
A|------9------------9-|------9------------9-|------9------------9-|------------------------|
E|-7-7-----------------|-7-7-----------------|-7-7-----------------|-7--7--7--7--7--7--7--7-|


--------------------
00:26
RIFF 2
*******
G|----------------------|----------------------|----------------------|--------------------|
D|-----9-7-9------------|-----9-7-9------------|-----9-7-9------------|-----9-7-9----------|
A|------------7-7-7-8-9-|------------7-7-7-8-9-|------------7-7-7-8-9-|------------7-7-7-7-|
E|-7-7------------------|-7-7------------------|-7-7------------------|-7-7----------------|


--------------------
00:38
RIFF 3 - Que Sera
*******
G|-----------|------------|------------|------------|
D|-----9-7-9-|-7-7--7---7-|-6-6--6---6-|------------|
A|-----------|--------7---|--------6---|------------|
E|-7-7-------|------------|------------|-9-9--9-7-9-|X4


--------------------
01:01
RIFF 4
*******
G|------------|------------|-----------------------|------------|------------|-----------------------|
D|------------|-7-7--7---7-|-----------------------|------------|-7-7--7---7-|-----------------------|
A|-9-9--9-9-9-|--------7---|-----------9-9-9-9-----|-9-9--9-9-9-|--------7---|-----------9-9-9-9-----|
E|------------|------------|-9-9--9-11---------9-8-|------------|------------|-9-9--9-11---------9-8-|


--------------------
01:12
RIFF 1
*******
G|---------------------|---------------------|---------------------|---------------------|
D|--------9-7-9--9-7---|--------9-7-9--9-7---|--------9-7-9--9-7---|--------9-7-9--9-7---|
A|------9------------9-|------9------------9-|------9------------9-|------9------------9-|
E|-7-7-----------------|-7-7-----------------|-7-7-----------------|-7-7-----------------|

01:24
G|---------------------|---------------------|---------------------|---------------------|
D|--------9-7-9--9-7---|--------9-7-9--9-7---|--------9-7-9--9-7---|--------9-7-9--9-7---|
A|------9------------9-|------9------------9-|------9------------9-|------9------------9-|
E|-7-7-----------------|-7-7-----------------|-7-7-----------------|-7-7-----------------|

01:35
G|---------------------|---------------------|---------------------|---------------------|
D|--------9-7-9--9-7---|--------9-7-9--9-7---|--------9-7-9--9-7---|--------9-7-9--9-7---|
A|------9------------9-|------9------------9-|------9------------9-|------9------------9-|
E|-7-7-----------------|-7-7-----------------|-7-7-----------------|-7-7-----------------|


G|-----------------|
D|-------9-9-9-7---|
A|-----9---------9-|
E|-7-7-------------|


--------------------
01:50
RIFF 2
*******
G|----------------------|----------------------|----------------------|--------------------|
D|-----9-7-9------------|-----9-7-9------------|-----9-7-9------------|-----9-7-9----------|
A|------------7-7-7-8-9-|------------7-7-7-8-9-|------------7-7-7-8-9-|------------7-7-7-7-|
E|-7-7------------------|-7-7------------------|-7-7------------------|-7-7----------------|


--------------------
02:02
RIFF 3 - Que Sera
*******
G|-----------|------------|------------|------------|
D|-----9-7-9-|-7-7--7---7-|-6-6--6---6-|------------|
A|-----------|--------7---|--------6---|------------|
E|-7-7-------|------------|------------|-9-9--9-7-9-|X4


--------------------
02:25
RIFF 4
*******
G|------------|------------|-----------------------|------------|------------|-----------------------|
D|------------|-7-7--7---7-|-----------------------|------------|-7-7--7---7-|-----------------------|
A|-9-9--9-9-9-|--------7---|-----------9-9-9-9-----|-9-9--9-9-9-|--------7---|-----------9-9-9-9-----|
E|------------|------------|-9-9--9-11---------9-8-|------------|------------|-9-9--9-11---------9-8-|


--------------------
OUTRO
******
G|---------|---------|
D|---------|---------|
A|---------|---------|
E|-7-7-7-7-|-7-7-7-7-|



ENJOY.........
Suggest correction
Give kudos to tab author, rate the tab!
1 2 3 4 5
comments
print report bad tab
guest
You may want to rate the tab now too:
select rating
Wanna post a correction for this tab? Suggest correction