Oops, an error
Loading. Please wait.

Cloudy Days Bass Tab

7 views 3 this week
no commentswrite comment
1 2 3 4 5
3 more votes to show rating
add to favorites
launch autoscroll
font size
0
reset
guitar tuner
Autoscroll
slow
fast
+/-
esc
set tempo
stop
Help us to improve Ultimate-Guitar.com Take our survey!
×
Author
Difficulty
novice
Tabbed by: 6METAL6BASSIST6
E-mail: petergriffinav@gmail.com

Tuning: EADG

0:09

G|----------------------------------------------------------------|
D|----------------------------------------------------------------|
A|2---------------2---------------2---------------2---------------|
E|----------------------------------------------------------------|

G|----------------------------------------------------------------|
D|2---------------2---------------2---------------2---------------|
A|----------------------------------------------------------------|
E|----------------------------------------------------------------|

G|----------------------------------------------------------------|
D|----------------------------------------------------------------|
A|2---------------2---------------2---------------2---------------|
E|----------------------------------------------------------------|

G|--------------------------------------------------------|
D|2---------------2---------------2-----------------------|
A|--------------------------------------------------------|
E|--------------------------------------------------------|

0:33

G|----------------------------------------------------------------|
D|--------4---------------4---------------4---------------4-------|
A|2---------------2---------------2---------------2---------------|
E|----------------------------------------------------------------|

G|----------------------------------------------------------------|
D|2---------------2---------------2---------------2---------------|
A|--------2---------------2---------------2---------------2-------|
E|----------------------------------------------------------------|

G|----------------------------------------------------------------|
D|--------4---------------4---------------4---------------4-------|
A|2---------------2---------------2---------------2---------------|
E|----------------------------------------------------------------|

G|----------------------------------------------------------------|
D|2---------------2---------------2---------------2-------1-------|
A|--------2---------------2---------------2-------------------4---|
E|----------------------------------------------------------------|

0:54

G|----------------------------------------------------------------|
D|--------4---------------4---------------4---------------4---6---|
A|2---------------2---------------2---------------2---------------|
E|----------------------------------------------------------------|

G|----------------------------------------------------------------|
D|7---------------7-------6---4---2---------------2-------1-------|
A|--------7-------------------------------2-------------------4---|
E|----------------------------------------------------------------|

G|----------------------------------------------------------------|
D|--------4---------------4-------2---------------2---------------|
A|2---------------2-----------------------2---------------2-------|
E|----------------------------------------------------------------|

G|----------------|
D|2-------1-------|
A|------------4---|
E|----------------|

1:10

G|----------------4-------------------------------4---------------|
D|--------4---------------4---------------4-------------4/6---4---|
A|2-------------------------------2-------------------------------|
E|----------------------------------------------------------------|

G|----------------------------------------------------------------|
D|2---------------2---------------2---------------2-------1-------|
A|--------2---------------2---------------2-------------------4---|
E|----------------------------------------------------------------|

G|----------------4-------------------------------4---------------|
D|--------4---------------4---------------4-------------/-6---4---|
A|2-------------------------------2-------------------------------|
E|----------------------------------------------------------------|

G|----------------------------------------------------------------|
D|2---------------2---------------2-------------------------------|
A|--------2---------------2---------------------------------------|
E|----------------------------------------------------------------|

1:30

G|----------------------------------------------------------------|
D|----------------------------------------------------------------|
A|----2---------------2---------------2---------------2-----------|
E|----------------------------------------------------------------|

G|----------------------------------------------------------------|
D|----2---------------2---------------2---------------2-----------|
A|----------------------------------------------------------------|
E|----------------------------------------------------------------|

G|----------------------------------------------------------------|
D|----------------------------------------------------------------|
A|----2---------------2---------------2---------------2-----------|
E|----------------------------------------------------------------|

G|----------------------------------------------------------------|
D|----2---------------2-----------2-------2-------2-------1-------|
A|------------------------------------------------------------4---|
E|----------------------------------------------------------------|

1:52

G|----------------4-----------------------------------------------|
D|--------4---------------4---------------4---------------4---6---|
A|2-------------------------------2---------------2---------------|
E|----------------------------------------------------------------|

G|----------------------------------------------------------------|
D|7---------------7-------6---4---2---------------2-------1-------|
A|--------7-------------------------------2-------------------4---|
E|----------------------------------------------------------------|

G|----------------------------------------------------------------|
D|--------4---------------4-------2---------------2---------------|
A|2---------------2-----------------------2---------------2-------|
E|----------------------------------------------------------------|

G|----------------|
D|2-------1-------|
A|------------4---|
E|----------------|

2:08 until fadeout.

G|----------------4-------------------------------4---------------|
D|--------4---------------4---------------4-------------/-6---4---|
A|2-------------------------------2-------------------------------|
E|----------------------------------------------------------------|

G|----------------------------------------------------------------|
D|2---------------2---------------2---------------2-------1-------|
A|--------2---------------2---------------2-------------------4---|
E|----------------------------------------------------------------|

G|----------------4-------------------------------4---------------|
D|--------4---------------4---------------4---------------4-------|
A|2-------------------------------2-------------------------------|
E|----------------------------------------------------------------|

G|----------------------------------------------------------------|
D|2---------------2---------------2---------------2-------1-------|
A|--------2---------------2---------------2-------------------4---|
E|----------------------------------------------------------------|
Suggest correction
Give kudos to tab author, rate the tab!
1 2 3 4 5
comments
print report bad tab
guest
You may want to rate the tab now too:
select rating
Wanna post a correction for this tab? Suggest correction