Oops, an error
Loading. Please wait.

I Cant Keep My Hands Off You bass

16 views 1 this week
no commentswrite comment
1 2 3 4 5
3 more votes to show rating
add to favorites
×
Save as Personal and add changes to this tab that will be seen only by you. Learn more ›
×
You can save this tab as Personal to edit and correct it or add notes. All changes will be seen only by you. Learn more »
launch autoscroll
font size
0
reset
guitar tuner
edit
Autoscroll
slow
fast
+/-
esc
set tempo
stop
Author
Difficulty
Tabbed by: 6METAL6BASSIST6
E-mail: petergriffinav@gmail.com

Tuning: EADG

0:08

G|----------------------------------------------------------------|
D|----------------------------------------------------------------|
A|----------------------------------------------------------------|
E|5-------------------------------5-------------------------------|

G|----------------------------------------------------------------|
D|----------------------------------------------------------------|
A|----------------7-------------------------------7---------------|
E|5-------------------------------5-------------------------------|

G|----------------------------------------------------------------|
D|----------------------------------------------------------------|
A|5-------------------------------5---------------4-------2-------|
E|----------------5-----------------------------------------------|

G|----------------------------------------------------------------|
D|----------------------------------------------------------------|
A|----------------7-----------------------------------------------|
E|5-------------------------------5---------------5---------------|

G|----------------------------------------------------------------|
D|----------------------------------------------------------------|
A|7-------------------------------7-------------------------------|
E|----------------7-------------------------------7---------------|

0:37

G|----------------------------------------------------------------|
D|----------------------------------------------------------------|
A|----------------7-------------------------------7---------------|
E|5-------------------------------5-------------------------------|

G|----------------------------------------------------------------|
D|----------------------------------------------------------------|
A|5-------------------------------5-------------------------------|
E|----------------5-------------------------------5---------------|

G|----------------------------------------------------------------|
D|----------------------------------------------------------------|
A|7-------------------------------7-------------------------------|
E|----------------7-------------------------------7---------------|

G|----------------------------------------------------------------|
D|----------------------------------------------------------------|
A|----------------7-------------------------------2-------4-------|
E|5-------------------------------5-------------------------------|

1:01

G|----------------------------------------------------------------|
D|----------------------------------------------------------------|
A|5-------------------------------5---------------4-------2-------|
E|----------------5-----------------------------------------------|

G|----------------------------------------------------------------|
D|----------------------------------------------------------------|
A|----------------7-------------------------------4-------5-------|
E|5-------------------------------5-------------------------------|

G|----------------------------------------------------------------|
D|----------------------------------------------------------------|
A|7-------------------------------7-------------------------------|
E|----------------7-------------------------------7---------------|

G|----------------------------------------------------------------|
D|----------------------------------------------------------------|
A|----------------7-------------------------------2-------4-------|
E|5-------------------------------5-------------------------------|

1:25

G|----------------------------------------------------------------|
D|----------------------------------------------------------------|
A|5-------------------------------5---------------4-------2-------|
E|----------------5-----------------------------------------------|

G|----------------------------------------------------------------|
D|----------------------------------------------------------------|
A|----------------7-------------------------------4-------5-------|
E|5-------------------------------5-------------------------------|

G|----------------------------------------------------------------|
D|----------------------------------------------------------------|
A|7-------------------------------7-------------------------------|
E|----------------7-------------------------------7---------------|

G|----------------------------------------------------------------|
D|----------------------------------------------------------------|
A|----------------------------7-----------------------------------|
E|5-------------------------------5-------------------------------|

1:48

G|----------------------------------------------------------------|
D|----------------------------------------------------------------|
A|----------------7-------------------------------7---------------|
E|5-------------------------------5-------------------------------|

G|----------------------------------------------------------------|
D|----------------------------------------------------------------|
A|5-------------------------------5---------------4-------2-------|
E|----------------5-----------------------------------------------|

G|----------------------------------------------------------------|
D|----------------------------------------------------------------|
A|----------------7-------------------------------4-------5-------|
E|5-------------------------------5-------------------------------|

G|----------------------------------------------------------------|
D|----------------------------------------------------------------|
A|7-------------------------------7-------------------------------|
E|----------------7-------------------------------7---------------|

2:11

G|----------------------------------------------------------------|
D|----------------------------------------------------------------|
A|----------------7-------------------------------7---------------|
E|5-------------------------------5-------------------------------|

G|----------------------------------------------------------------|
D|----------------------------------------------------------------|
A|5-------------------------------5-------------------------------|
E|----------------5-------------------------------5---------------|

G|----------------------------------------------------------------|
D|----------------------------------------------------------------|
A|7-------------------------------7-------------------------------|
E|----------------7-------------------------------7---------------|

G|----------------------------------------------------------------|
D|----------------------------------------------------------------|
A|----------------7-------------------------------2-------4-------|
E|5-------------------------------5-------------------------------|

2:35

G|----------------------------------------------------------------|
D|----------------------------------------------------------------|
A|5-------------------------------5---------------4-------2-------|
E|----------------5-----------------------------------------------|

G|----------------------------------------------------------------|
D|----------------------------------------------------------------|
A|----------------7-------------------------------4-------5-------|
E|5-------------------------------5-------------------------------|

G|----------------------------------------------------------------|
D|----------------------------------------------------------------|
A|7-------------------------------7-------------------------------|
E|----------------7-------------------------------7---------------|

G|----------------------------------------------------------------|
D|----------------------------------------------------------------|
A|----------------7-------------------------------2-------4-------|
E|5-------------------------------5-------------------------------|

2:58

G|----------------------------------------------------------------|
D|----------------------------------------------------------------|
A|5-------------------------------5---------------4-------2-------|
E|----------------5-----------------------------------------------|

G|----------------------------------------------------------------|
D|----------------------------------------------------------------|
A|----------------7-------------------------------4-------5-------|
E|5-------------------------------5-------------------------------|

G|----------------------------------------------------------------|
D|----------------------------------------------------------------|
A|7-------------------------------7-------------------------------|
E|----------------7-------------------------------7---------------|

G|----------------------------------------------------------------|
D|----------------------------------------------------------------|
A|----------------7-------------------------------7---------------|
E|5-------------------------------5-------------------------------|

3:21

G|----------------------------------------------------------------|
D|----------------------------------------------------------------|
A|----------------7-------------------------------2-------4-------|
E|5-------------------------------5-------------------------------|

G|----------------------------------------------------------------|
D|----------------------------------------------------------------|
A|5-------------------------------5---------------4-------2-------|
E|----------------5-----------------------------------------------|

G|--------------------------------------------------------------------|
D|--------------------------------------------------------------------| fades out here.
A|----------------7-------------------------------4-------5-------7---|
E|5-------------------------------5-----------------------------------|
Suggest correction
Creating personal tab
Creating personal tab
You can edit any tab online and save it as your Personal.

You can edit, replace or remove any tab part or add personal notes – all changes will be seen only by you.

Personal tabs can be accessed anytime from any device, even offline.
Learn more »
Give kudos to tab author, rate the tab!
1 2 3 4 5
comments
print report bad tab
guest
You may want to rate the tab now too:
select rating
Wanna post a correction for this tab? Suggest correction