Oops, an error
Loading. Please wait.

I Think Its Time She Learned bass

4 views 1 this week
no commentswrite comment
1 2 3 4 5
3 more votes to show rating
add to favorites
×
Save as Personal and add changes to this tab that will be seen only by you. Learn more ›
×
You can save this tab as Personal to edit and correct it or add notes. All changes will be seen only by you. Learn more »
launch autoscroll
font size
0
reset
guitar tuner
edit
Autoscroll
slow
fast
+/-
esc
set tempo
stop
Author
Difficulty
Tabbed by: 6METAL6BASSIST6
E-mail: petergriffinav@gmail.com

Tuning: EADG

G|----------------------------------------------------------------|
D|----------------------------------------------------------------|
A|5-------------------------------5---------------5---5-------5---|
E|----------------5-----------5-----------------------------------|

G|----------------------------------------------------------------|
D|----------------------------------------------------------------|
A|----------------7-----------7-----------------------------------|
E|5-------------------------------5---5---0-------2-------4-------|

0:10

G|----------------------------------------------------------------|
D|----------------------------------------------------------------|
A|5-------------------------------5-----------5---5-----------7---|
E|------------5---5-----------------------------------------------|

G|----------------------------------------------------------------|
D|----------------------------------------------------------------|
A|----------------7-----------7-------------------7-----------7---|
E|5-------------------------------5-------------------------------|

G|----------------------------------------------------------------|
D|----------------------------------------------------------------|
A|5---------------------------4---7---------------7-----------7---|
E|----------------5-----------------------------------------------|

G|----------------------------------------------------------------|
D|----------------------------------------------------------------|
A|----------------7-----------7---------------------------4-------|
E|5-------------------------------5-------5-------7---------------|

0:27

G|----------------------------------------------------------------|
D|----------------7-----------7-------------------------------4---|
A|5-------------------------------5---------------5---------------|
E|----------------------------------------------------------------|

G|----------------------------------------------------------------|
D|7-------------------------------7-----------------------7-------|
A|----------------7-------------------------------7---9-----------|
E|----------------------------------------------------------------|

G|----------------------------------------------------------------|
D|9---------------------------------------------------------------|
A|----------------9-----------9-----------------------------------|
E|--------------------------------7---------------7---------------|

G|----------------------------------------------------------------|
D|----------------------------------------------------------------|
A|----------------------------------------------------------------|
E|5---------------7-----------7---0-------0-------2-------4-------|

0:45

G|----------------------------------------------------------------|
D|----------------------------------------------------------------|
A|--------------------------------5-----------5---5-----------7---|
E|5-----------5---5-----------------------------------------------|

G|----------------------------------------------------------------|
D|----------------------------------------------------------------|
A|----------------7-----------7-------------------7-------9---7---|
E|5-----------5-------------------5-----------5-------------------|

G|----------------------------------------------------------------|
D|----------------------------------------------------------------|
A|----------------------------4---7-----------7---7-------7-------|
E|5-----------5---5-----------------------------------------------|

G|----------------------------------------------------------------|
D|----------------------------------------------------------------|
A|----------------7-------7-------------------------------4-------|
E|5-----------5-------------------5-----------5---7---------------|

1:02

G|----------------------------------------------------------------|
D|----------------7-------7---------------------------------------|
A|5-----------5-------------------5-----------5---5---------------|
E|--------------------------------------------------------7-------|

G|----------------------------------------------------------------|
D|----------------------------------------------------------------|
A|----------------------------4---5-----------5---5---4-----------|
E|5-----------5---5---------------------------------------7-------|

G|----------------------------------------------------------------|
D|----------------------------------------------------------------|
A|------------------------4-------5-----------5---5-------7-------|
E|5-----------5---5-----------------------------------------------|

G|----------------------------------------------------------------|
D|--------------------------------7-------7-------6-------4-------|
A|----------------7-----------7-------7---------------------------|
E|5-----------5---------------------------------------------------|

1:19

G|----------------------------------------------------------------|
D|----------------------------------------------------------------|
A|7-----------7-------------------7-----------7-------------------|
E|----------------7-----------7-------------------7-----------7---|

G|----------------------------------------------------------------|
D|----------------------------------------------------------------|
A|7-----------7-------------------7-----------7-------------------|
E|----------------7-----------7-------------------7-----5-7---7---|

G|----------------------------------------------------------------|
D|----------------------------------------------------------------|
A|--------------------------------------------------------7-------|
E|0-----------0---7-----------7---0-----------0---7-----------7---|

G|----------------------------------------------------------------|
D|------------------------7---------------------------------------|
A|----------------7-/-9-----------------------------------4-------|
E|5-----------5-------------------5-------5---5---7---------------|

1:36

G|----------------------------------------------------------------|
D|--------------------------------------------------------4---7---|
A|5-----------5-------------------5-----------5---5---7-----------|
E|----------------5-----------5-----------------------------------|

G|----------------------------------------------------------------|
D|--------------------------------------------------------4---7---|
A|------------------------4-------5-----------5---5---7-----------|
E|5---------------5-----------------------------------------------|

G|----------------------------------------------------------------|
D|----------------------------------------------------------------|
A|----------------------------4---5---------------5---5-------5---|
E|5-----------5---5-----------------------------------------------|

G|----------------------------------------------------------------|
D|----------------------------------------------------------------|
A|----------------7-----------7-----------------------------------|
E|5-------------------------------5---5---0-------2-------4-------|

G|----------------------------------------------------------------|
D|----------------------------------------------------------------|
A|5-------------------------------5-----------5---5-----------7---|
E|------------5---5-----------------------------------------------|

G|----------------------------------------------------------------|
D|--------------------------------7-------7-------6-------4-------|
A|----------------7-----------7-------7---------------------------|
E|5---------------------------------------------------------------|

2:02

G|----------------------------------------------------------------|
D|----------------------------------------------------------------|
A|7-------------------------------7-------------------------------|
E|----------------7-----------7-------------------7-----------7---|

G|----------------------------------------------------------------|
D|----------------------------------------------------------------|
A|7-----------7-------------------7-------9---------------7-------|
E|----------------7-----------7-----------------9-7---9-------9---|

G|----------------------------------------------------------------|
D|----------------------------------------------------------------|
A|----------------------------------------------------------------|
E|0-----------0---7-----------7---0-----------0---0-------4-------|

G|----------------------------------------------------------------|
D|--------------------------------7-------------------------------|
A|----------------7-----------7-------7-------------------4-------|
E|5-----------5---------------------------5-------7---------------|

2:19

G|----------------------------------------------------------------|
D|----------------7-----------7---------------------------4-------|
A|5-----------5-------------------5-----------5---5---------------|
E|----------------------------------------------------------------|

G|----------------------------------------------------------------|
D|7-----------7---7-----------------------------------------------|
A|------------------------7-------5-----------5---5---4-----------|
E|--------------------------------------------------------7-------|

G|----------------------------------------------------------------|
D|------------------------------------------------------------7---|
A|--------------------------------5---------------5---7---9-------|
E|5-----------5---5-----------------------------------------------|

G|----------------------------------------------------------------|
D|--------------------------------------------------------7-------|
A|----------------7-----------7-------------------7-/-9-------9---|
E|5-------------------------------5-------------------------------|

G|----------------------------------------------------------------|
D|----------------------------------------------------------------|
A|----------------------------4---5-----------5---5---------------|
E|5-----------5---5---------------------------------------10--\---|

G|----------------------------------------------------|
D|------------------------7-------7-------------------|
A|----------------7---9-------9-------9---7-----------|
E|5-----------------------------------------------5---|
Suggest correction
Creating personal tab
Creating personal tab
You can edit any tab online and save it as your Personal.

You can edit, replace or remove any tab part or add personal notes – all changes will be seen only by you.

Personal tabs can be accessed anytime from any device, even offline.
Learn more »
Give kudos to tab author, rate the tab!
1 2 3 4 5
comments
print report bad tab
guest
You may want to rate the tab now too:
select rating
Wanna post a correction for this tab? Suggest correction