Oops, an error
Loading. Please wait.

Slow Rollin Low Chords

103 views 21 this week
no commentswrite comment
1 2 3 4 5
x 3
add to favorites
launch autoscroll
font size
0
reset
transpose
0
reset
display chords
guitar tuner
Autoscroll
slow
fast
+/-
esc
set tempo
stop
Help us to improve Ultimate-Guitar.com Take our survey!
×
Author
Difficulty
intermediate
Please rate :)

When playing the chords in the intro, don't strum the full chord but rather concentrate on
hitting the first few strings. For the strumming rhythm listen to the recording.
I didn't tab out all the strums.

[Intro]

                   Strum chord
                   A 
e|-----------------0--*--*--*--*--*--*-|
B|-----------------0--*--*--*--*--*--*-|
G|-----------------2--*--*--*--*--*--*-|
D|-----------------2--*--*--*--*--*--*-|
A|------3p2-0----0-2--*--*--*--*--*--*-|
E|0-2-0------0-2---0--*--*--*--*--*--*-|

                Strum chord
                D
e|--------------2--*--*--*--*--*--*-|
B|--------------3--*--*--*--*--*--*-|
G|--------------2--*--*--*--*--*--*-|
D|--------------0--*--*--*--*--*--*-|
A|3-2-0-------0-0--*--*--*--*--*--*-|
E|------0-2-0---x--*--*--*--*--*--*-|
     
               Strum chord
               E
e|-------------0--*--*--*--*--*--*-|
B|-------------0--*--*--*--*--*--*-|
G|-------------1--*--*--*--*--*--*-|
D|-------------2--*--*--*--*--*--*-|
A|-0-0-2-0-----2--*--*--*--*--*--*-|
E|--------3b-0-0--*--*--*--*--*--*-|

                  Strum chord
                  A
e|----------------0--*--*--*--*--*--*-|
B|----------------0--*--*--*--*--*--*-|
G|----------------2--*--*--*--*--*--*-|
D|----------------2--*--*--*--*--*--*-|
A|---------0----0-2--*--*--*--*--*--*-|
E|-0-0-0-2---0-2--0--*--*--*--*--*--*-|

[Verse]

A
I got a slow rollin' low
                     D
Ain't a mother would want me
               E
Done got me so down bent out of round
                           A
Don't know my head from my toes.

[Verse]

A
Ain't a hand here to hold
                    D
Ain't a shoulder to cry on
                   E
Ain't a lesson to learn or a corner to turn
                    A
Twixt the dyin' and me.

[Bridge]
                  D
Lord, I wanted to be
                    A
Something you could depend on
                    D
Lawdy, Lawd, woe is me 
                   E
Ain't a body would care.

[Verse]

A
I got a slow rollin' low
                       D
Forgot the words to my song
                       E
Ain't that just like a fool to want a ride
                                      A
On them trains when the train is all gone.





************************************
| *   Repeat
| x   Dead note
| p   Pull-off
| b   Bend


************************************
Suggest correction
Give kudos to tab author, rate the tab!
1 2 3 4 5
comments
print report bad tab
guest
You may want to rate the tab now too:
select rating
Wanna post a correction for this tab? Suggest correction