Oops, an error
Loading. Please wait.

You Lost Your Place tab

version 2
version 2

Whole song

91 views 3 this week
1 commentread comment
1 2 3 4 5
3 more votes to show rating
add to favorites
×
Save as Personal and add changes to this tab that will be seen only by you. Learn more ›
×
You can save this tab as Personal to edit and correct it or add notes. All changes will be seen only by you. Learn more »
launch autoscroll
font size
0
reset
how to read this tab
guitar tuner
edit
Autoscroll
slow
fast
+/-
esc
set tempo
stop
Artist: Wayward Daughter
Song: Lost
Album: ?
Tabbed by: gustavoaraujo999@hotmail.com

Capo on 10th

[Intro x2]
e|-------10----------10----------10----------10----|
B|----11----11----11----11----11----11----11----11-|
G|-12----------12----------12----------12----------|
D|-------------------------------------------------|
A|-10----------------------------------------------|
E|-------------------------------------------------|

e|-------10----------10----------10----------10----|
B|----11----11----11----11----11----11----11----11-|
G|-------------12----------12----------12----------|
D|(15)---------------------------------------------|
A|-------------------------------------------------|
E|-13----------------------------------------------|
 
e|-------10----------10----------10----------10----|
B|----11----11----11----11----11----11----11----11-|
G|-------------12----------12----------12----------|
D|-------------------------------------------------|
A|-------------------------------------------------|
E|-11----------------------------------------------|
 
e|-------10----------10----------10----------10----|
B|----11----11----11----11----11----11----11----11-|
G|-------------12----------12----------12----------|
D|-------------------------------------------------|
A|-------------------------------------------------|
E|-10----------------------------------------**----|
 

[Verse 1]
        Gm            F             Gm            F                                              
e|-10-10-10-10-|-------------|-10-10-10-10-|-------------|
B|-11-11-11-11-|-------------|-11-11-11-11-|-------------|
G|-12-12-12-12-|-10-10-10-10-|-12-12-12-12-|-10-10-10-10-|
D|-12-12-12-12-|-10-10-10-10-|-12-12-12-12-|-10-10-10-10-|
A|-------------|-8--8--8--8--|-------------|-8--8--8--8--|
E|-------------|-------------|-------------|-------------|

        Gm            F             Gm            C                                             
e|-10-10-10-10-|-------------|-10-10-10-10-|-------------|
B|-11-11-11-11-|-------------|-11-11-11-11-|-------------|
G|-12-12-12-12-|-10-10-10-10-|-12-12-12-12-|-12-12-12-12-|
D|-12-12-12-12-|-10-10-10-10-|-12-12-12-12-|-10-10-10-10-|
A|-------------|-8--8--8--8--|-------------|-10-10-10-10-|
E|-------------|-------------|-------------|-------------|
 
e|-------------|-------------|-------------|
B|-------------|-------------|-------------|
G|-12-12-12-12-|-12-12-12-12-|-12-12-12-12-|
D|-10-10-10-10-|-10-10-10-10-|-10-10-10-10-|
A|-10-10-10-10-|-10-10-10-10-|-10-10-10-10-|
E|-------------|-------------|-------------|




 
[Chorus 1]
       D               Gm            F             C
e|-------------|-------------|-8--8--8--8--|-------------|
B|-------------|-11-11-11-11-|-10-10-10-10-|-------------|
G|-12-12-12-12-|-12-12-12-12-|-10-10-10-10-|-12-12-12-12-|
D|-12-12-12-12-|-12-12-12-12-|-10-10-10-10-|-10-10-10-10-|
A|-12-12-12-12-|-10-10-10-10-|-8--8--8--8--|-10-10-10-10-|
E|-10-10-10-10-|-------------|-------------|-------------|

e|-------------|-------------|-8--8--8--8--|-----------|
B|-------------|-11-11-11-11-|-10-10-10-10-|-----------|
G|-12-12-12-12-|-12-12-12-12-|-10-10-10-10-|-12-12-12--|
D|-12-12-12-12-|-12-12-12-12-|-10-10-10-10-|-10-10-10--|
A|-12-12-12-12-|-10-10-10-10-|-8--8--8--8--|-10-10-10--|
E|-10-10-10-10-|-------------|-------------|-----------|


[Interlude]
e|-------10----------10----------10----------10----|
B|----11----11----11----11----11----11----11----11-|
G|-12----------12----------12----------12----------|
D|-------------------------------------------------|
A|-10----------------------------------------------|
E|-------------------------------------------------|

e|-------10----------10----------10----------10----|
B|----11----11----11----11----11----11----11----11-|
G|-------------12----------12----------12----------|
D|(15)---------------------------------------------|
A|-------------------------------------------------|
E|-13----------------------------------------------|
 
e|-------10----------10----------10----------10----|
B|----11----11----11----11----11----11----11----11-|
G|-------------12----------12----------12----------|
D|-------------------------------------------------|
A|-------------------------------------------------|
E|-11----------------------------------------------|
 
e|-------10----------10----------10----------------|
B|----11----11----11----11----11-------------------|
G|-------------12----------12----------------------|
D|-------------------------------------------------|
A|-------------------------------------------------|
E|-10----------------------------------------**----|


[Verse 1]
e|-10-10-10-10-|-------------|-10-10-10-10-|-------------|
B|-11-11-11-11-|-------------|-11-11-11-11-|-------------|
G|-12-12-12-12-|-10-10-10-10-|-12-12-12-12-|-10-10-10-10-|
D|-12-12-12-12-|-10-10-10-10-|-12-12-12-12-|-10-10-10-10-|
A|-------------|-8--8--8--8--|-------------|-8--8--8--8--|
E|-------------|-------------|-------------|-------------|

e|-10-10-10-10-|-------------|-10-10-10-10-|-------------|
B|-11-11-11-11-|-------------|-11-11-11-11-|-------------|
G|-12-12-12-12-|-10-10-10-10-|-12-12-12-12-|-12-12-12-12-|
D|-12-12-12-12-|-10-10-10-10-|-12-12-12-12-|-10-10-10-10-|
A|-------------|-8--8--8--8--|-------------|-10-10-10-10-|
E|-------------|-------------|-------------|-------------|
 
e|-------------|-------------|-------------|
B|-------------|-------------|-------------|
G|-12-12-12-12-|-12-12-12-12-|-12-12-12-12-|
D|-10-10-10-10-|-10-10-10-10-|-10-10-10-10-|
A|-10-10-10-10-|-10-10-10-10-|-10-10-10-10-|
E|-------------|-------------|-------------|


[Chorus 2]
e|-------------|-------------|-8--8--8--8--|-------------|
B|-------------|-11-11-11-11-|-10-10-10-10-|-------------|
G|-12-12-12-12-|-12-12-12-12-|-10-10-10-10-|-12-12-12-12-|
D|-12-12-12-12-|-12-12-12-12-|-10-10-10-10-|-10-10-10-10-|
A|-12-12-12-12-|-10-10-10-10-|-8--8--8--8--|-10-10-10-10-|
E|-10-10-10-10-|-------------|-------------|-------------|

e|-------------|-------------|-------------|-------------|
B|-------------|-11-11-11-11-|-------------|-------------|
G|-12-12-12-12-|-12-12-12-12-|-12-12-12-12-|-12-12-12-12-|
D|-12-12-12-12-|-12-12-12-12-|-10-10-10-10-|-10-10-10-10-|
A|-12-12-12-12-|-10-10-10-10-|-10-10-10-10-|-10-10-10-10-|
E|-10-10-10-10-|-------------|-8--8--8--8--|-8--8--8--8--|


[Bridge]
e|-------------|
B|-------------|
G|-12-12-12-12-|
D|-12-12-12-12-|
A|-12-12-12-12-|
E|-10-10-10-10-|

e|-------------|-8--8--8--8--|-------------|-------------|
B|-11-11-11-11-|-10-10-10-10-|-------------|-------------|
G|-12-12-12-12-|-10-10-10-10-|-12-12-12-12-|-12-12-12-12-|
D|-12-12-12-12-|-10-10-10-10-|-10-10-10-10-|-10-10-10-10-|
A|-10-10-10-10-|-8--8--8--8--|-10-10-10-10-|-10-10-10-10-|
E|-------------|-------------|-8--8--8--8--|-8--8--8--8--|

e|-------------|-8--8--8--8--|-------------|-------------|
B|-11-11-11-11-|-10-10-10-10-|-------------|-------------|
G|-12-12-12-12-|-10-10-10-10-|-12-12-12-12-|-12-12-12-12-|
D|-12-12-12-12-|-10-10-10-10-|-10-10-10-10-|-10-10-10-10-|
A|-10-10-10-10-|-8--8--8--8--|-10-10-10-10-|-10-10-10-10-|
E|-------------|-------------|-8--8--8--8--|-8--8--8--8--|


[Chorus 3]
e|-------------|-------------|-8--8--8--8--|-------------|
B|-------------|-11-11-11-11-|-10-10-10-10-|-------------|
G|-12-12-12-12-|-12-12-12-12-|-10-10-10-10-|-12-12-12-12-|
D|-12-12-12-12-|-12-12-12-12-|-10-10-10-10-|-10-10-10-10-|
A|-12-12-12-12-|-10-10-10-10-|-8--8--8--8--|-10-10-10-10-|
E|-10-10-10-10-|-------------|-------------|-------------|

e|-------------|-------------|-8--8--8--8--|-----------|
B|-------------|-11-11-11-11-|-10-10-10-10-|-----------|
G|-12-12-12-12-|-12-12-12-12-|-10-10-10-10-|-12-12-12--|
D|-12-12-12-12-|-12-12-12-12-|-10-10-10-10-|-10-10-10--|
A|-12-12-12-12-|-10-10-10-10-|-8--8--8--8--|-10-10-10--|
E|-10-10-10-10-|-------------|-------------|-----------|

e|-------------|
B|-------------|
G|-12-12-12-12-|
D|-12-12-12-12-|
A|-12-12-12-12-|
E|-10-10-10-10-|


[Outro x4]
e|-------10----------10----------10----------10----|
B|----11----11----11----11----11----11----11----11-|
G|-12----------12----------12----------12----------|
D|-------------------------------------------------|
A|-10----------------------------------------------|
E|-------------------------------------------------|

e|-------10----------10----------10----------10----|
B|----11----11----11----11----11----11----11----11-|
G|-------------12----------12----------12----------|
D|(15)---------------------------------------------|
A|-------------------------------------------------|
E|-13----------------------------------------------|
 
e|-------10----------10----------10----------10----|
B|----11----11----11----11----11----11----11----11-|
G|-------------12----------12----------12----------|
D|-------------------------------------------------|
A|-------------------------------------------------|
E|-11----------------------------------------------|
 
e|-------10----------10----------10----------10----|
B|----11----11----11----11----11----11----11----11-|
G|-------------12----------12----------12----------|
D|-------------------------------------------------|
A|-------------------------------------------------|
E|-10----------------------------------------**----|

My heart's not the issue, it's my head that's a mess
I gave the world my everything and got back a lot less
I know that I'm not living cause I'm only just alive
I may still be breathing but a part of me's died

I'm the lost and lonely soul
I'm the troubled wasted youth
I'm the reason, I'm the cause
I'm the liar not the truth
I'm the train wreck, the disaster
I'm the unforgiving rain
I'm the before, never the after
I'm the never ending pain

I'm the never ending pain

I'm lost in the forest, alone in the woods
Even my Mumma says that I just ain't no good
And I know that the thoughts in the back of mind
Are pulling me down, making it hard to survive

I'm the lost and lonely soul
I'm the troubled wasted youth
I'm the reason, I'm the cause
I'm the liar not the truth
I'm the train wreck, the disaster
I'm the unforgiving rain
I'm the before, never the after
I'm the never ending pain

So tell me now what was my sin?
That I should cause such whispering?
And nightmares keeping me up all the night
Lost in the woods alone I stray
Without a guide, I lose my way
Where is my shepherd leading me to light?

cause I'm the lost and loonely soul
I'm the troubled wasted youth
I'm the reason, I'm the cause
I'm the liar not the truth
I'm the train wreck, the disaster
I'm the unforgiving rain
I'm the before, never the after
I'm the never ending pain

cause I'm the lost and loonely soul
I'm the troubled wasted youth
I'm the reason, I'm the cause
I'm the liar not the truth
I'm the train wreck, the disaster
I'm the unforgiving rain
I'm the before, never the after
I'm the never ending pain

            
            
Suggest correction
Creating personal tab
Creating personal tab
You can edit any tab online and save it as your Personal.

You can edit, replace or remove any tab part or add personal notes – all changes will be seen only by you.

Personal tabs can be accessed anytime from any device, even offline.
Learn more »
Give kudos to tab author, rate the tab!
1 2 3 4 5
comments
print report bad tab
1 comment total.
0 reply
gustavoaraujo9 3,288 Dec 18, 2015 04:15 PM

Uh, I don't know how the name got changed up but the tab is for this song:

https://www.youtube.com/watch?v=1VbrspGfYN0

guest
You may want to rate the tab now too:
select rating
Wanna post a correction for this tab? Suggest correction