Oops, an error
Loading. Please wait.

Ciudad Central tab

version 2
version 2

Whole song

by WDK
16 views 1 this week
no commentswrite comment
1 2 3 4 5
3 more votes to show rating
add to favorites
×
Save as Personal and add changes to this tab that will be seen only by you. Learn more ›
×
You can save this tab as Personal to edit and correct it or add notes. All changes will be seen only by you. Learn more »
launch autoscroll
font size
0
reset
how to read this tab
guitar tuner
edit
Autoscroll
slow
fast
+/-
esc
set tempo
stop
      Bb      F       D#       F
1|------------------------------------------
2|---------------------------3-3-3-1-1-4-3--
3|---3-3-2---3-3-2---3-3-2------------------
4|--------3-------3-------3-----------------
5|------------------------------------------
6|------------------------------------------
      Bb      F       D#       F
1|------------------------------------------
2|---------------------------3-3-3-1-1-4-3--
3|---3-3-2---3-3-2---3-3-2------------------
4|--------3-------3-------3-----------------
5|------------------------------------------
6|------------------------------------------


Bb                     F
Muy pronto descubrió , temprano despertó
D#                                F
su impulso al placer , la secundaria fue
Bb                  F
Tenia que girar , hacer su vida bien
D#                      F
y se encontró con que no era tan asi

G                       Bb
En la ciudad central , donde cuesta existir
G                              Bb
tuvo que entregar su cuerpo y su forma de vivir
G                       Bb
para en las esquinas , sin lugar donde vivir
G                            D#         F
su familia piensa en que es libre y es feliz

Bb    F
VIVE DANDO VUELTAS
D           D#
YA NADA LA SORPRENDE
         Bb    F
EN ESTA SELVA DE CEMENTO
D#                    F
QUIERES SABER LO QUE SIENTO POR DENTRO?
Bb    F
RUTAS DE PALERMO
D                D#
DEMOSTRÓ SU EROTISMO ETERNO
Bb                 F
CUÁNTO LE DAS POR UN BUEN MOMENTO?
D#                    F
QUIERES SABER LO QUE SIENTO POR DENTRO?


Bb / G   |
         |---> X4
Mierda!  |

Bb                    F
Es una historia más, que hay para contar
D#                                F
son cosas que se ven , hoy en cualquier lugar
Bb                   F
tenia que escapar , hacer vida normal
D#                          F
su meta era lograr un buen futuro

G                       Bb
En la ciudad central , donde cuesta existir
G                             Bb
tuvo que entregar su cuerpo y su forma de vivir
G                     Bb
sube en los autos , para complacer
G                             D#       F
muéstrale el dinero que ella sabe que hacer.


Bb    F
VIVE DANDO VUELTAS
D           D#
YA NADA LA SORPRENDE
         Bb    F
EN ESTA SELVA DE CEMENTO
D#                    F
QUIERES SABER LO QUE SIENTO POR DENTRO?
Bb    F
RUTAS DE PALERMO
D                D#
DEMOSTRÓ SU EROTISMO ETERNO
Bb                 F
CUÁNTO LE DAS POR UN BUEN MOMENTO?
D#                    F
QUIERES SABER LO QUE SIENTO POR DENTRO?


Bb / G   |
         |---> X4
Mierda!  |


Bb
D# / F

Bb/F/D#/F
1|-----------------------1---1---------------------1---1----
2|---3-3-3-3-----------3---3-------1-3-1---------3---3------
3|-----------3-3-3-2-3---------3-3-------3-3-2-3------------
4|----------------------------------------------------------
5|----------------------------------------------------------
6|----------------------------------------------------------

Bb/F/D#/F
1|-----------------------1---1---------------------1---1----
2|---3-3-3-3-----------3---3-------1-3-1---------3---3------
3|-----------3-3-3-2-3---------3-3-------3-3-2-3------------
4|----------------------------------------------------------
5|----------------------------------------------------------
6|----------------------------------------------------------

Bb/F/D#/F
1|------------------------------------------
2|------------------------------------------
3|---3-3-2---3-3-2---3-3-2------------------
4|--------3-------3-------3-----------------
5|------------------------------------------
6|------------------------------------------

Bb/F/D#/F
1|------------------------------------------
2|---------------------------3-3-3-1-1-4-3--
3|---3-3-2---3-3-2---3-3-2------------------
4|--------3-------3-------3-----------------
5|------------------------------------------
6|------------------------------------------
Suggest correction
Creating personal tab
Creating personal tab
You can edit any tab online and save it as your Personal.

You can edit, replace or remove any tab part or add personal notes – all changes will be seen only by you.

Personal tabs can be accessed anytime from any device, even offline.
Learn more »
Give kudos to tab author, rate the tab!
1 2 3 4 5
comments
print report bad tab
guest
Wanna post a correction for this tab? Suggest correction