Oops, an error
Loading. Please wait.

Para Vos chords

by WDK
20 views 1 this week
no commentswrite comment
1 2 3 4 5
3 more votes to show rating
add to favorites
×
Save as Personal and add changes to this tab that will be seen only by you. Learn more ›
×
You can save this tab as Personal to edit and correct it or add notes. All changes will be seen only by you. Learn more »
launch autoscroll
font size
0
reset
transpose
0
reset
simplify chords
display chords
guitar tuner
edit
Autoscroll
slow
fast
+/-
esc
set tempo
stop
Strumming
There is no strumming pattern for this song yet. and get +5 IQ
E5                          D#5  E5
Te quiero te quiero y te lo digo asi
A5                          F#5  B5
no existe la vergüenza de decirtelo
G#5                             B5  E5
pues desde que llegaste mi vida cambio
A5                          F#5  B5
poniendo tan contento a mi corazon


E5                          D#5  E5
Te quiero te quiero y te lo digo asi
A5                               F#5  B5
que sepa todo el barrio que te amo a vos
G#5                              B5  E5
y aunque a veces no te trate bien sabes
A5                             F#5  B5
que muero si no duermo con vos otra vez


A5              D5       E5
Dónde estabas cuando me senti morir
A5              D5       E5
le di mi alma al diablo solo por vos


A5
Pienso!
C#5
Siento!
A5                    C#5
Que es tan crudo este mundo
    E5         A5
Si conmigo no estas
A5
Canto!
C#5
Grito!
A5                    C#5         E5
Para que entiendas una vez esta verdad


E5                          D#5  E5
Te quiero te quiero y te lo digo asi
A5                          F#5  B5
no existe la vergüenza de decirtelo
G#5                             B5  E5
pues desde que llegaste mi vida cambio
A5                          F#5  B5
poniendo tan contento a mi corazon


E5                          D#5  E5
Te quiero te quiero y te lo digo asi
A5                               F#5  B5
que sepa todo el barrio que te amo a vos
G#5                              B5  E5
y aunque a veces no te trate bien sabes
A5                             F#5  B5
que muero si no duermo con vos otra vez


A5           D5          E5
Entre tanta oscuridad te pude ver
A5           D5          E5
El DESTINO es que soy solo tuyo

A5
Tengo!
C#5
Siento!
A5              C#5
El secreto de perderte
E5            A5
Que no puedo parar

A5
Canto!
C#5
Grito!
A5            C#5
Que es una suerte
E5            A5
Tenerte para mi
.....

(AHI SE REPITE EL ESTRIBILLO)

Solo:

/  =   Slice
h  = Hammer
p  = Pull Off
(b) = Estirar. Ej: 7(b)9 (estirar 7 hasta 9)


G)|----9(b)11----6h7p6-----4/6--4/6-----9(b)11------|
D)|---------------------7---------------------------|
A)|-------------------------------------------------|
E)|-------------------------------------------------|

G)|-6h7p6-----4/6-----------|
D)|--------7----------------|
A)|----------------7--------|
E)|-------------------------|

G)|-----------------------------------------------|
D)|-------7--7-----7-----------7--7-----7/9-9/7---|
A)|--7h9--------9---------7h9--------9------------|
E)|-----------------------------------------------|

G)|---------------------------|
D)|----7---7h9p7/11/7/12/11/7-|
A)|-7h9--9--------------------|
E)|---------------------------|

G)|------------------------------------------|
D)|--7-7-----7--7---7--------7--7------------|
A)|------7h9------9-----7h9--------9--7------|
E)|------------------------------------------|

            
            
Suggest correction
Creating personal tab
Creating personal tab
You can edit any tab online and save it as your Personal.

You can edit, replace or remove any tab part or add personal notes – all changes will be seen only by you.

Personal tabs can be accessed anytime from any device, even offline.
Learn more »
Give kudos to tab author, rate the tab!
1 2 3 4 5
comments
print report bad tab
guest
Wanna post a correction for this tab? Suggest correction