Oops, an error
Loading. Please wait.

Pasaporte tab

by WDK
5 views 1 this week
no commentswrite comment
1 2 3 4 5
3 more votes to show rating
add to favorites
×
Save as Personal and add changes to this tab that will be seen only by you. Learn more ›
×
You can save this tab as Personal to edit and correct it or add notes. All changes will be seen only by you. Learn more »
launch autoscroll
font size
0
reset
how to read this tab
guitar tuner
edit
Autoscroll
slow
fast
+/-
esc
set tempo
stop
                     _  _
         __ __ __ __| || |__
         \ V  V // _` || / /            _
  _ __  _ \_/\_/ \__,_||_\_\  ___  _ _ | |_  ___
 | '_ \/ _` |(_- _` || '_ \/ _ \| '_||  _|/ -_)
 | .__/\__,_|/__/\__,_|| .__/\___/|_|   \__|\___|
 |_|                   |_| jdcm182@


las ultimas migajas del pueblo argetino
los jubilados se mueren! por aca por esta misma avenida
los argentinos duermen en el piso, tapados con cartones
no lo permitan!, no me interesa la bandera yanqui
donde esta mi bandera? quiero ver aca, la bandera argentina


e |-----7-10------7-------------7--5-----5-7~----5-7-5---8--...S
B |--8~---------8---10--8--5~--------------------------8----...I
G |---------------------------------------------------------...G
D |---------------------------------------------------------...U
A |---------------------------------------------------------...E
E |---------------------------------------------------------..-->
   \ 3 veces /


e ...--12-11--8--10-8-7---5-5-3-----7-10-8---7-5------7-5-3---|
B ...-----------------------------8--------------8------------|
G ...---------------------------------------------------------|
D ...---------------------------------------------------------|
A ...---------------------------------------------------------|
E ...---------------------------------------------------------|


    acordes intro
e |-----------------------------------|
B |-----------------------------------|
G |--------7-----5--8--7-----5--7-----|
D |--5--2--7--5--5--8--7--9--5--7--5--|
A |--5--2--5--5--3--6--5--9--3--5--5--|
E |--3--0-----3-----------7--------3--|

          verse
e |-------------------------|
B |-------------------------|
G |--?--8--7--9--5--7-------|
D |--?--8--7--9--5--7--5----|
A |--?--6--5--7--3--5--5----|
E |--?-----------------3----|

      pre-chorus        c h o r u s
e |-----------------|----------------|
B |-----------------|----------------|
G |--------------7--|-----5-------5--|
D |--2--7-----5--7--|--5--5---5---5--|
A |--2--7-----5--5--|--5--3---5---3--|
E |--0--5-----3-----|--3------3------|
      palm-muted      \_x3_/


         b r i d g e
e |-------------------------|
B |-------------------------|
G |-----5-------6/7---5-----|
D |--5--5---5---6/7---5--5--|
A |--5--3---5---4/5---3--5--|
E |--3------3------------3--|
    \_x3_/      \x3/


]]]]]]]L]]]]]E]]]]]]]]T]]]]]]]R]]]]]]]A]]]]]]]]]]]]]]]]]


en la television                 
vi cosas que causaron             VERSE I
MI desesperacion                 

que triste que es saber          
que muchos hoy se van             VERSE II
y no van a volver                

abrazos y un adios               
de alguien que espero             PRE-CHORUS
la patria que hoy murio          

para MI                          
para vos                          CHORUS
para los dos                     

   repite intro

pasajes en avion                 
con destino al exterior           VERSE III
buscando algo mejor              

desde adentro pareciera          
que este cielo y la bandera       VERSE IV
ya han cambiado de color         

lo celeste se hizo gris          
todo el blanco se ensucio         PRE-CHORUS
y nuestro sol se consumio        

para MI                          
para vos                          CHORUS
para los dos                     

]]]---===---[[[

si yo supiera lo                         
que estamos aguantando                    PRE-CHORUS
sabrian que es bien justo este reclamo   

  BRIDGE

para MI                         
para vos                        
para MI                         
para vos                         OUTRO
para MI                         
para vos                        
para los dos                    


]]]]]]]]]]]]]]]]]]]]]]]]]]]]]]]]]]]]]]]]]]]]]]]]]]]]]]]]
]]                                                    ]]
]]               jdcm182@                  ]]
]]                                                    ]]
]]]]]]]]]]]]]]]]]]]]]]]]]]]]]]]]]]]]]]]]]]]]]]]]]]]]]]]]

:::estos son los tabs que subi hasta ahora:::

   - CADENA PERPETUA - SIGO ACA
   - WDK - CIUDAD CENTRAL
   - WDK - QUE NECESITAS?
   - EL OTRO YO - INMADURO
   - SMITTEN - INTENTO
   - WDK - SENSACION PURA
   - WDK - PASAPORTE
   - WDK - HENRY DEL '76
   - WDK - VOY COLGADO

:::::::::::::::::::::::::::::::::::::::::::::

            
            
Suggest correction
Creating personal tab
Creating personal tab
You can edit any tab online and save it as your Personal.

You can edit, replace or remove any tab part or add personal notes – all changes will be seen only by you.

Personal tabs can be accessed anytime from any device, even offline.
Learn more »
Give kudos to tab author, rate the tab!
1 2 3 4 5
comments
print report bad tab
guest
Wanna post a correction for this tab? Suggest correction