Oops, an error
Loading. Please wait.

Stardust Tab

by WDL
7 views 1 this week
no commentswrite comment
1 2 3 4 5
2 more votes to show rating
add to favorites
launch autoscroll
font size
0
reset
how to read this tab
guitar tuner
Autoscroll
slow
fast
+/-
esc
set tempo
stop
Help us to improve Ultimate-Guitar.com Take our survey!
×
Author
Difficulty
novice
Hi, here's the tab of a song I really like, hope it will help
no capo needed but you can put it on 2 for the beginning

i'll try to complete the tab even more

WDL - Stardust ft. Elliphant

[Intro and Verse]
   Fm                                            
e|---------------------------------------------------------------------------------|
B|---------------------------------------------------------------------------------|
G|---------------------------------------------------------------------------------|
D|----------4---------4----------4------------4--------------2--------------2------|
A|-------4----4----4----4-----4-----4-----4------4-------4------4-------4-------4--|
E|----2---------2----------2-----------2-------------4--------------4--------------|

e|---------------------------------------------------------------------------------|
B|---------------------------------------------------------------------------------|
G|---------------------------------------------------------------------------------|
D|-------4---2---4-------4---2---4-------------------------------------------------|
A|----2--------------2-------------------------------------------------------------|
E|---------------------------------------------------------------------------------|

[Chorus]
We're made of stardust...
e|---------------------------------------------------------------------------------|
B|---------------------------------------------------------------------------------|
G|---------------------------------------------------------------------------------|
D|----6----------------------------------------------------------------------------|
A|----4-------7-------7------7------9--------11------------------------------------|
E|---------------------------------------------------------------------------------|

[Intro] x1
[Verse] x4
[Chorus] x2
[Verse] x4
[Chorus] x2
[Solo part]
[Chorus] x4
Suggest correction
Give kudos to tab author, rate the tab!
1 2 3 4 5
comments
print report bad tab
guest
You may want to rate the tab now too:
select rating
Wanna post a correction for this tab? Suggest correction