Oops, an error
Loading. Please wait.

Mighty Days tab

10 views 1 this week
no commentswrite comment
1 2 3 4 5
3 more votes to show rating
add to favorites
×
Save as Personal and add changes to this tab that will be seen only by you. Learn more ›
×
You can save this tab as Personal to edit and correct it or add notes. All changes will be seen only by you. Learn more »
launch autoscroll
font size
0
reset
how to read this tab
guitar tuner
edit
Autoscroll
slow
fast
+/-
esc
set tempo
stop
Author
Artist: We All Came To Kill
MØ in vocals
https://www.youtube.com/watch?v=fWKK07exOtM

[Hook]
      Cm      Fm
He's a rapper by day
      Cm      Fm
He's a rapper by day
   Cm      Fm
I like to dream away
Cm          Fm
Gone is the solid rain

[Chorus]
           Gm
And in the light of a bright shape

Who caught me dancing on the tapes
            Gm
I'd love to rock your cyber space

Come on, ??? fuck far away

Oh, mighty days

e|------------------------|------------------------|-----------------------|
B|------------------------|------------------------|-----------------------|
G|------------------------|------------------------|-----------------------|
D|-----------3------------|-----------3------------|--4-5-6-4-5-3----------|
A|-3--6-5------6-5-3--6-5-|--3--6-5-----6-5-3--6-5-|--------------6-5------|
E|------------------------|------------------------|-----------------------|

            Gm
And in the light of a bright shape

Who caught me dancing on the tapes
            Gm
I'd love to rock your cyber space

Come on, just rock like in the days

Oh, mighty days

e|------------------------|------------------------|-----------------------|
B|------------------------|------------------------|-----------------------|
G|------------------------|------------------------|-----------------------|
D|-----------3------------|-----------3------------|--4-5-6-4-5-3----------|
A|-3--6-5------6-5-3--6-5-|--3--6-5-----6-5-3--6-5-|--------------6-5-3----|
E|------------------------|------------------------|-----------------------|
                      "Oh, mighty days.."

e|--------------------------|
B|--------------------------|
G|--------------------------|
D|--4-5-4-3-----------------|
A|----------6-5-3-2-3-------|
E|--------------------------|

e|--------------------------|
B|--------------------------|
G|--------------------------|
D|--4-5-4-3-----------------|
A|----------6-5-3-2-3-------|
E|--------------------------|

[Verse]
N.C
Where do the birds fly when we ??? night
N.C
Where do the birds fly when we call them to the sky?
      Gm
To the sky

[Hook]
      Cm      Fm
He's a rapper by day (by day)
      Cm      Fm
He's a rapper by day (by day)
  Cm       Fm
I like the sun shining (I like the sun to shine)
Cm      Fm
Save it for my mind

e|--------------------------|
B|--------------------------|
G|--------------------------|
D|--4-5-4-3-----------------|
A|----------6-5-3-2-3-------|
E|--------------------------|

[Chorus]
             Gm
And in the light of a bright shape

Who caught me dancing on the tapes
            Gm
I'd love to rock your cyber space

Come on, just rock like in the days

Oh, mighty days

e|------------------------|------------------------|-----------------------|
B|------------------------|------------------------|-----------------------|
G|------------------------|------------------------|-----------------------|
D|-----------3------------|-----------3------------|--4-5-6-4-5-3----------|
A|-3--6-5------6-5-3--6-5-|--3--6-5-----6-5-3--6-5-|--------------6-5------|
E|------------------------|------------------------|-----------------------|
                      "Oh, mighty days.."

e|------------------------|------------------------------|
B|------------------------|--------------------------4---|
G|------------------------|--------------------------5---|
D|-----------3------------|-----------3--------------5---|
A|-3--6-5------6-5-3--6-5-|--3--6-5-----6-5-3--6-5---3---|
E|------------------------|------------------------------|

            
            
Suggest correction
Creating personal tab
Creating personal tab
You can edit any tab online and save it as your Personal.

You can edit, replace or remove any tab part or add personal notes – all changes will be seen only by you.

Personal tabs can be accessed anytime from any device, even offline.
Learn more »
Give kudos to tab author, rate the tab!
1 2 3 4 5
comments
print report bad tab
guest
You may want to rate the tab now too:
select rating
Wanna post a correction for this tab? Suggest correction