Oops, an error
Loading. Please wait.

Lo Mas Grande Que Existe Es El Amor chords

version 2
version 2

Whole song

57 views 1 this week
no commentswrite comment
1 2 3 4 5
3 more votes to show rating
add to favorites
×
Save as Personal and add changes to this tab that will be seen only by you. Learn more ›
×
You can save this tab as Personal to edit and correct it or add notes. All changes will be seen only by you. Learn more »
launch autoscroll
font size
0
reset
transpose
0
reset
simplify chords
display chords
guitar tuner
edit
Autoscroll
slow
fast
+/-
esc
set tempo
stop
Strumming
There is no strumming pattern for this song yet. and get +5 IQ
Ultima actualizacion: 01/04/2011
---------------------

ESTA CANCION SE LA DEDICO A MIS VIEJITOS POR HABERME INCULCADO
LA MUSICA DESDE MUY NIÑO. Y BUENO AQUI VA - WE ALL TOGETHER -
PARA TODO EL MUNDO, ARRIBA PERU CARAJO!!!
--------------------------------------------------------------
* Las notas pueden tocarlas de diferentes maneras, aqui coloco
  el estilo de Saul Cornejo.

    C#7   | Asus4 | Dsus2 | Bm/A
E |--1----|--0----|--0----|--2--|----|----|----||
B |--0----|--3----|--3----|--3--|----|----|----||
G |--1----|--2----|--2----|--4--|----|----|----||
D |-------|--2----|--0----|--4--|----|----|----||
A |-------|--0----|-------|--0--|----|----|----||
E |-------|-------|-------|-----|----|----|----||

Intro: A - C#m - F#m - C#7 - D - E (bis)
------

Riff principal:
---------------
     A                         | C#m
E |----------------------------|----------------------------|
B |--------------5--5--5-------|--------------5--5--5-------|
G |--------6--6----------------|--------6--6----------------|
D |--7--7----------------------|--6--6----------------------|
A |----------------------------|----------------------------|
E |----------------------------|----------------------------|

 F#m                        | C#7
----------------------------|----------------------------|
--------------2--2--2-------|--------------0--0--0-------|
--------2--2----------------|--------1--1----------------|
--4--4----------------------|--3--3----------------------|
----------------------------|----------------------------|
----------------------------|----------------------------|

 D                          | E
----------------------------|----------------------------||
--------------3--3--3-------|--------------5--5--5-------||
--------2--2----------------|--------4--4----------------||
--4--4----------------------|--6--6----------------------||
----------------------------|----------------------------||
----------------------------|----------------------------||

A - Asus4 - A

A                             Dsus2
  Hay algo que reflejas al hablar
A                                      Dsus2
  que fue en silencio ansiado por los dos
Bm            Bm/A                E
  y al encontranos nuevamente hoy
                                       A - Asus4 - A
  tus ojos al brillar a amar nos llevará

A                              Dsus2
  El tiempo pasa y veo que es mejor
A                              Dsus2
  existe mucho en ti que ya cambió
Bm        Bm/A            E
  ahora eres ya una mujer
                                       A
  y puedes comprender que una es la vidaaa...


CORO:
-----

A - C#m  F#m         C#7               D
...aaaa Acércate esperando están mis brazos
       E            A
    tenerte como anteee...
   C#m     F#m       C#7            D
...eees, sintamos y vivamos lo mas grande
          E             A - Asus4 - A
    que existe en el amor

(Se repiten los acordes al igual como el primer verso y coro)

Me hiciste ayer sentir la soledad
la soledad se hizo sentir en ti
el claro cielo que me hizo vivir
de niebla vi cubrir
y mi alma oscureció

Sufirendo solo ya mi soledad
me dije no hay razón para vivir
pues todo aquello que nos separó
tu sabes que pasó, y sin esperarlo

Parece que son cosas de la vida
que nunca imaginamos
sentimos y vivimos, es lo grande
      E             A - D - A - G
que existe en el amooor

Bridge:
-------
F#m          C#7          F#m            D     E
   Aun en mi mente están aquellos sentimientos
F#m          C#7     F#m                D    E
   sería imposible el borrar esos momentos
E
   al despuntar el día estabas en mis brazos
E7
   y dándome tu amor.

(Se repite el Intro con el solo, luego todo sigue igual)
(ya pondre el solo pronto)

Amarnos ahora ha sido como ayer
sentir lo mismo para estremecer
por ese fuego que no se apagó
asi nos envolvió

Y lo deseabamos
hoy vemos que son cosas de la vida
que muy dentro llevamos
sentimos y vivimos lo mas grande
que existe en el amor.

================================================================
We All Together son una banda de la cual aprendi mucho,
y su estilo 'beatle' es grandioso, tiene muy buenos
covers de el grupo BADFINGER, asi como de los mismos Beatles
en especial de Paul McCartney.

Tuve el placer y el agrado de asistir a uno de sus conciertos,
y simplemente quede maravillado. WE ALL TOGETHER son lo maximo.
marcaron epoca... gracias señores.
Suggest correction
Creating personal tab
Creating personal tab
You can edit any tab online and save it as your Personal.

You can edit, replace or remove any tab part or add personal notes – all changes will be seen only by you.

Personal tabs can be accessed anytime from any device, even offline.
Learn more »
Give kudos to tab author, rate the tab!
1 2 3 4 5
comments
print report bad tab
guest
Wanna post a correction for this tab? Suggest correction