Oops, an error
Loading. Please wait.

Chapel Song Tab

version 2
version 2

Whole song

Interactive

2,653 views 9 this week
no commentswrite comment
1 2 3 4 5
please rate
add to favorites
launch autoscroll
font size
0
reset
how to read this tab
guitar tuner
Tab Pro tools
  • play this tab
  • loop segment
  • change instrument
  • show fretboard
  • metronome
×
Best way to learn
"Chapel Song"
Autoscroll
slow
fast
+/-
esc
set tempo
stop
Contributor
I heard this song in the Blu-Ray Disc Menu from the great Snowboard movie "THE ART OF FLIGHT".
I decided to make a tab. Thought the other tabs are good. But not the whole song. They 
say it needs a Capo. Well in the video of "Chapel Song" they don't use a Capo. But on 
their Live versions they do.
I decided to do the Tab without Capo.

Band: We Are Augustines
Song: Chapel Song
Album: Rise Ye Sunken Ships
Tunning: Standart


INTRO(2x):

Guitar I

e|-----------------|----------------|----------------|-----------------|
B|-----------------|----------------|----------------|-----------------|
G|-----------------|----------------|----------------|-----------------|
D|-----------------|----------------|----------------|------4----------|
A|---4---4---4---4-|--5---5---5---5-|--4---4---4---4-|--4------4---4---|
E|-5---5---5---5---|-7---7---7---7--|-2---2---2---2--|-5---5-----5-----|


1ST VERSE:

Guitar I

e|-----------------|----------------|----------------|-----------------|
B|-----------------|----------------|----------------|-----------------|
G|-----------------|----------------|----------------|-----------------|
D|-----------------|----------------|----------------|------4----------|
A|---4---4---4---4-|--5---5---5---5-|--4---4---4---4-|--4------4---4---|
E|-5---5---5---5---|-7---7---7---7--|-2---2---2---2--|-5---5-----5-----|


Guitar II

e|----------------------------------|----------------------------------|
B|----------------------------------|----------------------------------|
G|-6-6-6-6--6-6-6-6--6-6-6/7--7-7/6-|-6-6-6-6--6-6-6-6--6-6-6/7--7-7/6-|
D|-x-x-x-x--x-x-x-x--x-x-x/x--x-x/x-|-x-x-x-x--x-x-x-x--x-x-x/x--x-x/x-|
A|-4-4-4-4--4-4-4-4--4-4-4/5--5-5/4-|-4-4-4-4--4-4-4-4--4-4-4/5--5-5/4-|
E|----------------------------------|----------------------------------|

Guitar I

e|-----------------|------------------|----------------|---------------|
B|-----------------|------------------|----------------|---------------|
G|-----------------|------------------|----------------|---------------|
D|-------2---------|--------2---------|-------4--------|------4--------|
A|---4------5------|---4-------5------|---4------4-----|--4------4-----|
E|-5---5-------4---|-5---5--------4---|-5---5-------5--|-5---5------5--|
  "And I shake shake like a leaf"

Guitar II

e|----------------------------------|----------------------------------|
B|----------------------------------|----------------------------------|
G|-6-6-6-6--6-6-6-6--6-6-6/7--7-7/6-|-6-6-6-6--6-6-6-6--6-6-6/7--7-7/6-|
D|-x-x-x-x--x-x-x-x--x-x-x/x--x-x/x-|-x-x-x-x--x-x-x-x--x-x-x/x--x-x/x-|
A|-4-4-4-4--4-4-4-4--4-4-4/5--5-5/4-|-4-4-4-4--4-4-4-4--4-4-4/5--5-5/4-|
E|----------------------------------|----------------------------------|



BRIDGE(2x):

Guitar I

e|-----------------|----------------|----------------|-----------------|
B|-----------------|----------------|----------------|-----------------|
G|-----------------|----------------|----------------|-----------------|
D|-----------------|----------------|----------------|------4----------|
A|---4---4---4---4-|--5---5---5---5-|--4---4---4---4-|--4------4---4---|
E|-5---5---5---5---|-7---7---7---7--|-2---2---2---2--|-5---5-----5-----|


Guitar II

e|---9--9--9--9--|---10--10--10--10-|---9--9--9--9--|---10--10--12--12-|
B|-10-10-10-10---|-10--10--10--10---|-10-10-10-10---|-10--10--10--10---|
G|---------------|------------------|---------------|------------------|
D|---------------|------------------|---------------|------------------|
A|---------------|------------------|---------------|------------------|
E|---------------|------------------|---------------|------------------|


BREAKDOWN(2x):

Guitar I

e|-----------------|----------------|----------------|-----------------|
B|-----------------|----------------|----------------|-----------------|
G|-----------------|----------------|----------------|-----------------|
D|-----------------|----------------|----------------|------4----------|
A|---4---4---4---4-|--5---5---5---5-|--4---4---4---4-|--4------4---4---|
E|-5---5---5---5---|-7---7---7---7--|-2---2---2---2--|-5---5-----5-----|


2ND VERSE:


Guitar I

e|-----------------|----------------|----------------|-----------------|
B|-----------------|----------------|----------------|-----------------|
G|-----------------|----------------|----------------|-----------------|
D|-----------------|----------------|----------------|------4----------|
A|---4---4---4---4-|--5---5---5---5-|--4---4---4---4-|--4------4---4---|
E|-5---5---5---5---|-7---7---7---7--|-2---2---2---2--|-5---5-----5-----|


Guitar II

e|----------------------------------|----------------------------------|
B|----------------------------------|----------------------------------|
G|-6-6-6-6--6-6-6-6--6-6-6/7--7-7/6-|-6-6-6-6--6-6-6-6--6-6-6/7--7-7/6-|
D|-x-x-x-x--x-x-x-x--x-x-x/x--x-x/x-|-x-x-x-x--x-x-x-x--x-x-x/x--x-x/x-|
A|-4-4-4-4--4-4-4-4--4-4-4/5--5-5/4-|-4-4-4-4--4-4-4-4--4-4-4/5--5-5/4-|
E|----------------------------------|----------------------------------|

Guitar I

e|-----------------|------------------|----------------|---------------|
B|-----------------|------------------|----------------|---------------|
G|-----------------|------------------|----------------|---------------|
D|-------7---------|--------7---------|-------7--------|------7--------|
A|---4------4------|---4-------4------|---4------4-----|--4------4-----|
E|-5---5-------5---|-5---5--------5---|-5---5-------5--|-5---5------5--|
   "And I shake shake like a leaf"

Guitar II

e|----------------------------------|----------------------------------|
B|----------------------------------|----------------------------------|
G|-6-6-6-6--6-6-6-6--6-6-6/7--7-7/6-|-6-6-6-6--6-6-6-6--6-6-6/7--7-7/6-|
D|-x-x-x-x--x-x-x-x--x-x-x/x--x-x/x-|-x-x-x-x--x-x-x-x--x-x-x/x--x-x/x-|
A|-4-4-4-4--4-4-4-4--4-4-4/5--5-5/4-|-4-4-4-4--4-4-4-4--4-4-4/5--5-5/4-|
E|----------------------------------|----------------------------------|


CHORUS:

Guitar I

e|-----------------|----------------|----------------|-----------------|
B|-----------------|----------------|----------------|-----------------|
G|-----------------|----------------|----------------|-----------------|
D|-----------------|----------------|----------------|------4----------|
A|---4---4---4---4-|--5---5---5---5-|--4---4---4---4-|--4------4---4---|
E|-5---5---5---5---|-7---7---7---7--|-2---2---2---2--|-5---5-----5-----|
  "Tear out the photograph, cause it's a bright blue sky"

Guitar II

e|---9--9--9--9--|---10--10--10--10-|---9--9--9--9--|---10--10--12--12-|
B|-10-10-10-10---|-10--10--10--10---|-10-10-10-10---|-10--10--10--10---|
G|---------------|------------------|---------------|------------------|
D|---------------|------------------|---------------|------------------|
A|---------------|------------------|---------------|------------------|
E|---------------|------------------|---------------|------------------|


TRUMPET SOLO FILLS IN:

Guitar I

e|-----------------|----------------|----------------|-----------------|
B|-----------------|----------------|----------------|-----------------|
G|-----------------|----------------|----------------|-----------------|
D|-----------------|----------------|----------------|------4----------|
A|---4---4---4---4-|--5---5---5---5-|--4---4---4---4-|--4------4---4---|
E|-5---5---5---5---|-7---7---7---7--|-2---2---2---2--|-5---5-----5-----|


Guitar II

e|---9--9--9--9--|---10--10--10--10-|---9--9--9--9--|---10--10--12--12-|
B|-10-10-10-10---|-10--10--10--10---|-10-10-10-10---|-10--10--10--10---|
G|---------------|------------------|---------------|------------------|
D|---------------|------------------|---------------|------------------|
A|---------------|------------------|---------------|------------------|
E|---------------|------------------|---------------|------------------|


BREAKDOWN & OUTRO(2x):

Guitar I

e|-----------------|----------------|----------------|-----------------|
B|-----------------|----------------|----------------|-----------------|
G|-----------------|----------------|----------------|-----------------|
D|-----------------|----------------|----------------|------4----------|
A|---4---4---4---4-|--5---5---5---5-|--4---4---4---4-|--4------4---4---|
E|-5---5---5---5---|-7---7---7---7--|-2---2---2---2--|-5---5-----5-----|


Hope you have fun playing!
comments
We did not receive enough feedback on this tab! Please rate:
print report bad tab
1 2 3 4 5
I want to post or [tab]
guest
You may want to rate the tab now too:
select rating
Please do not post tabs as comments. Select "correction" instead!