Oops, an error
Loading. Please wait.

Seventeen Tab

466 views 1 this week
no commentswrite comment
1 2 3 4 5
excellent!
x 3
add to favorites
launch autoscroll
font size
0
reset
how to read this tab
guitar tuner
Autoscroll
slow
fast
+/-
esc
set tempo
stop
Help us to improve Ultimate-Guitar.com Take our survey!
×
Author
Capo
Hi there!  I tabbed this as a request for a UG member.
I hadn't heard it before and when I looked it up I really
liked it, so here it is:)  Here's the link:

http://www.youtube.com/watch?v=vJC53jBDD3c&feature=bf_prev&list=LLcc1IAwPGYevHJDv7Wklaaw

Let me know if there are any mistakes and I'll fix it:) 
The picking and strumming are pretty simple; play along 
with the song to get it down!


Standard Tuning: EADGBE
Capo on 1

Intro-
       G                              Cadd9
e|---------------------------------------------------------------------|
B|---------3------3------3----------------3------3------3--------------|
G|-------0---0------0------0---0--------0---0------0------0---0--------| x2
D|-----0-------0------0------0--------2-------2------2------2----------|
A|----------------------------------3----------------------------------|
E|--3------------------------------------------------------------------|


(Picking,same as intro)
G                 Cadd9  G                   Cadd9
We were only seventeen,  rock & roll and nicotine.
(Strumming)
G                   Dsus4
Girls meet boys and boys meet girls,
   Em7                Cadd9                   Em7    
It felt like you were my whole world until it falls apart,
          Dsus4
Left with broken hearts.


Cadd9         Em7             Cadd9                 Dsus4
 We were only seventeen, I was standing there in my blue jeans.
    Cadd9             Em7
She smiled and walked past me,                              ( *once)
        Dsus4           Cadd9           Dsus4         Cadd9* Dsus4* G* Cadd9
And our love was like a spark to gasoline, and it was you    and    me.
             Em7       Cadd9                    Dsus4
We were only seventeen,  we made such a mess of everything.
Cadd9         G                 Cadd9          Dsus4
Souvenirs and broken dreams and photographs of you and me,
    Cadd9*
When, we were only seventeen.


G  Cadd9...stop

 
G                  Cadd9      G                        Cadd9
We were watching MTV, staying up, 'til a quarter after three.
        G               Dsus4
And the world was ours, for the taking
Em7                   Cadd9                     Em7   
Time stood still, our hearts were racing but it falls apart
          Dsus4
Left with broken hearts.



Cadd9         Em7             Cadd9                 Dsus4
 We were only seventeen, I was standing there in my blue jeans.
    Cadd9             Em7
She smiled and walked past me,                            ( *once)   
        Dsus4           Cadd9           Dsus4         Cadd9* Dsus4* G* Cadd9
And our love was like a spark to gasoline, and it was you    and    me.
             Em7       Cadd9                   Dsus4
We were only seventeen, we made such a mess of everything.
Cadd9         G                 Cadd9          Dsus4
Souvenirs and broken dreams and photographs of you and me,
    Cadd9*
When, we were only seventeen.



G                     Cadd9                 G             Cadd9
Do you believe that a canvas can be painted twice, painted white?
G                     Cadd9                 G             Cadd9
Do you believe that a canvas can be painted twice, painted white?
G                               Cadd9                          G        
Wash away the guilt & shame and take my hand and steal my pain away.
  Cadd9
(Away)
              G                                  Cadd9                
And I'll find rest inside your arms from all the memories.
       G 
Do you believe?
         Cadd9 
Do you believe?


     Cadd9           Em7        Cadd9         Dsus4     
e|---------------------------------------------------------------|
B|------3--------------3------------3--------------3-------------|
G|----0---0----------0---0--------0---0-------2--2---2-----------|
D|--2-------2------2-------2----2-------2-----0--------0---------|
A|--3--------------2------------3--------------------------------|
E|---------------------------------------------------------------|

Cadd9        Em7       Cadd9                   Dsus4
We were only seventeen, we made such a mess of everything.


     Cadd9          G          Cadd9         Dsus4     
e|---------------------------------------------------------------|
B|------3--------------3------------3--------------3-------------|
G|----0---0----------0---0--------0---0-------2--2---2-----------|
D|--2-------2--------------0----2-------2-----0--------0---------|
A|--3--------------2------------3--------------------------------|
E|-----------------3---------------------------------------------|

Cadd9         G                 Cadd9          Dsus4
Souvenirs and broken dreams and photographs of you and me,


    Cadd9
When, we were only seventeen.


Cadd9        Em7             Cadd9                 Dsus4
We were only seventeen, I was standing there in my blue jeans.
    Cadd9             Em7
She smiled and walked past me,
        Dsus4           Cadd9        Dsus4            Cadd9* Dsus4* G* Cadd9
And our love was like a spark to gasoline, and it was you    and    me.
             Em7       Cadd9                   Dsus4
We were only seventeen, we made such a mess of everything.
Cadd9         G                 Cadd9          Dsus4
Souvenirs and broken dreams and photographs of you and me,
    Cadd9*
When, we were only seventeen.


Have fun and RATE!
cristy♥twilight
Suggest correction
Give kudos to tab author, rate the tab!
1 2 3 4 5
comments
print report bad tab
guest
You may want to rate the tab now too:
select rating
Please do not post tabs as comments. Select "correction" instead!