Oops, an error
Loading. Please wait.

Be My Baby Ronnettes Cover Tab

4,304 views 1 this week
1 commentread comment
1 2 3 4 5
excellent!
x 5
add to favorites
launch autoscroll
font size
0
reset
how to read this tab
guitar tuner
Autoscroll
slow
fast
+/-
esc
set tempo
stop
Help us to improve Ultimate-Guitar.com Take our survey!
×
Author
Difficulty
novice
This is a cover of the ronnettes's be my baby song by We Are Scientists which was 
on their UK re-release of Nobody Move, Nobody Get Hurt. Its a fairly easy song to play 
or even on electric guitar if you can figure out how keith gets all that feedback at the start of the song.

Standard Tuning

Intro/Verse
e-------------------------------------------------------------|
b-------------------------------------------------------------|
g-------9-----------------------------------------------------|
d--12---9---7-------------------------------------------------|
a--12---7---7-------------------------------------------------|
e--10-------5-------------------------------------------------|Palm Muted

Prechorus
e------------------------------------------------------------|
b------------------------------------------------------------|
g------4---9-------------------------------------------------|
d--4---4---9---7---------------------------------------------|
a--4---2---7---7---------------------------------------------|
e--2-----------5---------------------------------------------|

Chorus
e------------------------------------------------------------|
b------------------------------------------------------------|
g---7---4----------------------------------------------------|
d---7---4---5---7--------------------------------------------|
a---5---2---5---7--------------------------------------------|
e-----------3---5--------------------------------------------|

I'm not quite sure what keith does for the solo but he just messes around with the scale 
on. If Someone could figure it out, i would be grateful.

Thats basically the song, but only the basics. Please Rate. thanks very much enjoy.
Suggest correction
comments
print report bad tab
1 comment total.
0 reply
Dead Marshal 93 wrote on December 30 2006, 06:17 pm

ace thanks!

guest
You may want to rate the tab now too:
select rating
Wanna post a correction for this tab? Suggest correction