Oops, an error
Loading. Please wait.

Central Ac Tab

version 1
version 1

Whole song

721 views 1 this week
no commentswrite comment
1 2 3 4 5
please rate
add to favorites
launch autoscroll
font size
0
reset
how to read this tab
guitar tuner
Autoscroll
slow
fast
+/-
esc
set tempo
stop
Help us to improve Ultimate-Guitar.com Take our survey!
×
Author
Difficulty
novice
This is my first tab, hope you like it, sound right to me
Intro/verse
e|---------------------------------|----------------------------------|
B|---------------------------------|----------------------------------|
G|--x-x--9--x-7---11--(x6)--7-7-7--|--x-x--9--x-7--11-(x6)--12-12-12--|
D|--x-x--7--x-5---9---------9-9-9--|--x-x--7--x-5--9--------10-10-10--|
A|---------------------------------|----------------------------------|
E|---------------------------------|----------------------------------|


Chorus
e|-------------------------------------|
B|-----8---8---8----8---8---8---8---8--|
G|---9---9---9----9--------------------| x2
D|--------------------9---9---9---9----|
A|-------------------------------------|
E|-------------------------------------|


Bridge(delayed)
e|----------------|---------------------12----|
B|----------------|---------------------------|
G|-77777(FAST)----|---9--7--------------------| X8(I THINK)
D|----------------|-----------10---9----------|
A|----------------|---------------------------|
E|----------------|---------------------------|

solo???

intro
verse 
chorus
verse
chorus
bridge
solo
chorus

Suggest correction
Give kudos to tab author, rate the tab!
1 2 3 4 5
comments
print report bad tab
guest
You may want to rate the tab now too:
select rating
Please do not post tabs as comments. Select "correction" instead!