Oops, an error
Loading. Please wait.

Inaction Tab

version 1
version 1

Whole song

Interactive

9,361 views 1 this week
7 commentsread comments
1 2 3 4 5
x 7
add to favorites
launch autoscroll
font size
0
reset
how to read this tab
guitar tuner
Autoscroll
slow
fast
+/-
esc
set tempo
stop
Help us to improve Ultimate-Guitar.com Take our survey!
×
-------------------------------------------------------------------------------
                             Inaction- We are scientists
-------------------------------------------------------------------------------
Tabbed by:Jack D park_punk@hotmail.com


Tuning:Standard of course
Ok you know me, you figure the timing you crazy cats.

Riff 1 
e|--------------------------------------------------------------------------|
B|--------------------------------------------------------------------------|
G|--------------------------------------------------------------------------|
D|--xx7---------------------------------------------------------------------|
A|--xx7---------------------------------------------------------------------|
E|--xx5---------------------------------------------------------------------|
Chorus
e|--------------------------------------------------------------------------|
B|--------------------------------------------------------------------------|
G|14---17---16---------14----17----19---------------------------------------|
D|---------------17----------------------17---------------------------------|
A|12x8-15x8-14x8-------12x8--15x8--17x8-------------------------------------|
E|---------------15x8--------------------15x8-------------------------------|
Break 
e|--------------------------------------------------------------------------|
B|-b55555555--555555555-----------------------------------------------------|
G|-b55555555-b777757775-----------------------------------------------------|
D|--------------------------------------------------------------------------|
A|--------------------------------------------------------------------------|
E|--------------------------------------------------------------------------|
Verse 2 
e|--------------------------------------------------------------------------|
B|--------------------------------------------------------------------------|
G|-14----12----9----7-------------------------------------------------------|
D|--------------------------------------------------------------------------|
A|-12x8--10xb--7x8--5x8-----------------------------------------------------|
E|--------------------------------------------------------------------------|
Riff 2 
e|--------------------------------------------------------------------------|
B|--------------------------------------------------------------------------|
G|---14-12----------------14-12---------------------------------------------|
D|---------14-12---------------14-12----------------------------------------|
A|---------------14-14-12-------------14-14-12------------------------------|
E|--------------------------------------------------------------------------|

Structure 
Riff1
Verse1 Bass only
Chorus
Break
Verse2
Riff1
Break
Chorus
Riff2
Chorus
Riff2
Break
Suggest correction
comments
print report bad tab
7 comments total. Showing first comments.
0 reply
dono91 75 May 24, 2006 05:15 AM

good tab but you've got riff 2 wrong

+1 reply
AlphaSoulja 10 May 26, 2006 08:44 PM

e|------------------------|
B|------------------------|
G|---14-12----------------|
D|---------14-13-12-------|
A|------------------15-12-|
E|------------------------| x2 That's the corect way to play riff 2.

Just going down the blues scale in A.

0 reply
SimonomiS 10 Jul 27, 2006 02:29 PM

I think the break is off a little bit.

guest
You may want to rate the tab now too:
select rating
Wanna post a correction for this tab? Suggest correction