Oops, an error
Loading. Please wait.

Inaction Tab

version 3
version 3

Whole song

Interactive

1,765 views 3 this week
no commentswrite comment
1 2 3 4 5
2 more votes to show rating
add to favorites
launch autoscroll
font size
0
reset
how to read this tab
guitar tuner
Autoscroll
slow
fast
+/-
esc
set tempo
stop
Help us to improve Ultimate-Guitar.com Take our survey!
×
Author
Difficulty
novice
-----------------------------------------------------------------------------
                            INACTION - We Are Scientists
-----------------------------------------------------------------------------
Tabbed by: Stevie B
Email: stevie_b_@msn.com

Tuning: Standard (EADGBe)

I saw the other tabs for this and noticed some parts were wrong so thought I would put 
a correct tab. Or at least I hope its correct. Enjoy!

Intro (This might be played by leaving the 5 strings open but I liked it better this 
See what you prefer!)
|---0---0---0---0---0---0---0---0-|
|-XX0-XX0-XX0-XX0-XX0-XX0-XX0-XX0-|
|-XX2-XX2-XX2-XX2-XX2-XX2-XX2-XX2-|
|-XX2-XX2-XX2-XX2-XX2-XX2-XX2-XX2-|
|---0---0---0---0---0---0---0---0-|
|---------------------------------|

Chorus
|-------------------------------------------------|
|-10-10-10-10-10-10-10-10-13-13-13-13-13-13-13-13-|
|-X--X--X--X--X--X--X--X--X--X--X--X--X--X--X--X--|
|-7--7--7--7--7--7--7--7--10-10-10-10-10-10-10-10-|
|-------------------------------------------------|
|-------------------------------------------------|

|-------------------------------------------------|
|-12-12-12-12-12-12-12-12-------------------------|
|-X--X--X--X--X--X--X--X--12-12-12-12-12-12-12-12-|
|-9--9--9--9--9--9--9--9--X--X--X--X--X--X--X--X--|
|-------------------------10-10-10-10-10-10-10-10-|
|-------------------------------------------------|

|-------------------------------------------------|
|-10-10-10-10-10-10-10-10-13-13-13-13-13-13-13-13-|
|-X--X--X--X--X--X--X--X--X--X--X--X--X--X--X--X--|
|-7--7--7--7--7--7--7--7--10-10-10-10-10-10-10-10-|
|-------------------------------------------------|
|-------------------------------------------------|

|-------------------------------------------------|
|-15-15-15-15-15-15-15-15-------------------------|
|-X--X--X--X--X--X--X--X--11-11-11-11-11-11-11-11-|
|-12-12-12-12-12-12-12-12-X--X--X--X--X--X--X--X--|
|-------------------------9--9--9--9--9--9--9--9--|
|-------------------------------------------------|

Bridge 1
|--------------------------------------------------------------|
|--------------------------------------------------------------|
|-5-5-5-5-5-5-5-5-5-5-5-5--7--7^--7--5--7-5-7-7^--7-5---5-7-5--|
|-5-5-5-5-5-5-5-5-5-5-5-5-----------------------------7--------|
|--------------------------------------------------------------|
|--------------------------------------------------------------|

2nd Verse
|------------------------------------------------|
|-10-10-10-10-10-10-10-10-8--8--8--8--8--8--8--8-|
|-X--X--X--X--X--X--X--X--X--X--X--X--X--X--X--X-|
|-7--7--7--7--7--7--7--7--5--5--5--5--5--5--5--5-|
|------------------------------------------------|
|------------------------------------------------|

|------------------------------------------------|
|------------------------------------------------|
|-9--9--9--9--9--9--9--9--7--7--7--7--7--7--7--7-|
|-X--X--X--X--X--X--X--X--X--X--X--X--X--X--X--X-|
|-7--7--7--7--7--7--7--7--5--5--5--5--5--5--5--5-|
|------------------------------------------------|

Bridge 2
|---0---0---0---0---0---0---0---0-|
|-XX0-XX0-XX0-XX0-XX0-XX0-XX0-XX0-|
|-XX2-XX2-XX2-XX2-XX2-XX2-XX2-XX2-|
|-XX2-XX2-XX2-XX2-XX2-XX2-XX2-XX2-|
|---0---0---0---0---0---0---0---0-|
|---------------------------------|

|---0---0---0---0---------------------------|
|-XX0-XX0-XX0-XX0---------------------------|
|-XX2-XX2-XX2-XX2--5-5-5-5-5-5-7-7^--7--5---|
|-XX2-XX2-XX2-XX2--5-5-5-5-5-5------------7-|
|---0---0---0---0---------------------------|
|-------------------------------------------|

Breakdown
|--------------------------------------------|
|--------------------------------------------|
|-14-12----------------14--12----------------|
|-------14-13-12--------------14-13-12-------|
|----------------15-12-----------------15-12-|
|--------------------------------------------|


Order:
Intro
Bass only Verse
Chorus (X2)
Bridge 1
Verse 2 (X2)
Bridge 2
Chorus (X2)
Breakdown (X4)
Chorus (X2)
Breakdown (X2)
Bridge 1

| ^  bend note
| /  slide up
| \  slide down
| h  hammer-on
| p  pull-off
| ~  vibrato
| +  harmonic
| x  Mute note
=============================================================================
Suggest correction
Give kudos to tab author, rate the tab!
1 2 3 4 5
comments
print report bad tab
guest
You may want to rate the tab now too:
select rating
Wanna post a correction for this tab? Suggest correction