Oops, an error
Loading. Please wait.

Jack Ginger Tab

version 2
version 2

Whole song

291 views 3 this week
1 commentread comment
1 2 3 4 5
please rate
add to favorites
launch autoscroll
font size
0
reset
how to read this tab
guitar tuner
Autoscroll
slow
fast
+/-
esc
set tempo
stop
Help us to improve Ultimate-Guitar.com Take our survey!
×
Author
samfarr93 169
This is an interpretation of how the song is played live rather than the album version.

Intro
e|-5--5-x-x-5--5-x-x-5--5-x-x--5--5-x-x-|
B|-5--5-x-x-6--6-x-x-6--6-x-x--6--6-x-x-|
G|-5--5-x-x-7--7-x-x-5--5-x-x--5--5-x-x-|
D|-7--7-x-x-7--7-x-x-7--7-x-x--7--7-x-x-|(x4)
A|-x--x-x-x-x--x-x-x-x--x-x-x--x--x-x-x-|
E|--------------------------------------|

Verse 1
e|-5--x-x-x-5--5-x-x-x-5--5-x-x-x-5--5-x-x-x-x-|
B|-5--x-x-x-5--6-x-x-x-6--6-x-x-x-6--6-x-x-x-x-|
G|-5--x-x-x-5--7-x-x-x-7--5-x-x-x-7--5-x-x-x-x-|
D|-7--x-x-x-7--7-x-x-x-7--7-x-x-x-7--7-x-x-x-x-|(x4)
A|---------------------------------------------|
E|---------------------------------------------|

e|-x-x-x-x-x-x--xx-x-x-x-x-x-x-x--|
B|-x-x-x-x-x-x--xx-x-x-x-x-x-x-x--|
G|-x-x-x-x-x-x--xx-x-x-x-x-x-x-x--|
D|-x-x-x-x-x-x--xx-x-x-x-x-x-x-x--|(x2)
A|-x-x-x-x-x-x--xx-x-x-x-x-x-x-x--|
E|--------------------------------|

e|-5--5-x-x-5--5-x-x-5--5-x-x--5--5-x-x-|
B|-5--5-x-x-6--6-x-x-6--6-x-x--6--6-x-x-|
G|-5--5-x-x-7--7-x-x-5--5-x-x--5--5-x-x-|
D|-7--7-x-x-7--7-x-x-7--7-x-x--7--7-x-x-|(x2)
A|-x--x-x-x-x--x-x-x-x--x-x-x--x--x-x-x-|
E|--------------------------------------|

Chorus
e|----------------------15-15-12-12-12----------------|
B|----------13-13-13-13----------------15-15-15-13-13-|
G|-16-16-16-------------------------------------------|
D|----------------------------------------------------|(x8)
A|----------------------------------------------------|
E|----------------------------------------------------|
(feedback)

e|-5--5-x-x-5--5-x-x-5--5-x-x--5--5-x-x-|
B|-5--5-x-x-6--6-x-x-6--6-x-x--6--6-x-x-|
G|-5--5-x-x-7--7-x-x-5--5-x-x--5--5-x-x-|
D|-7--7-x-x-7--7-x-x-7--7-x-x--7--7-x-x-|
A|-x--x-x-x-x--x-x-x-x--x-x-x--x--x-x-x-|
E|--------------------------------------|

Verse 2
e|-5--x-x-x-5--5-x-x-x-5--5-x-x-x-5--5-5-5-5-5-|
B|-5--x-x-x-5--6-x-x-x-6--6-x-x-x-6--6-6-6-6-6-|
G|-5--x-x-x-5--7-x-x-x-7--5-x-x-x-7--5-5-5-5-5-|
D|-7--x-x-x-7--7-x-x-x-7--7-x-x-x-7--7-7-7-7-7-|(x4)
A|-x--x-x-x-x--x-x-x-x-x--x-x-x-x-x--x-x-x-x-x-|
E|---------------------------------------------|

Chorus
e|----------------------15-15-12-12-12----------------|
B|----------13-13-13-13----------------15-15-15-13-13-|
G|-16-16-16-------------------------------------------|
D|----------------------------------------------------|(x8)
A|----------------------------------------------------|
E|----------------------------------------------------|

Bridge
e|-12--12-x-12-12-12--12-12-12-12-|
B|-12--12-x-12-12-13--13-13-13-13-|
G|-12--12-x-12-12-14--14-14-14-14-|
D|--------------------------------|(x4)
A|--------------------------------|
E|--------------------------------|

e|-12----------------12-12-12-12-12-12-12-12-12-12-12-12-12-12-12-|
B|-12----------------12-12-12-12-12-12-12-12-12-12-12-12-12-12-12-|
G|-12----------------12-12-12-12-12-12-12-12-12-12-12-12-12-12-12-|
D|----------------------------------------------------------------|
A|----------------------------------------------------------------|
E|----------------------------------------------------------------|

Chorus
e|----------------------15-15-12-12-12----------------|
B|----------13-13-13-13----------------15-15-15-13-13-|
G|-16-16-16-------------------------------------------|
D|----------------------------------------------------|(x8)
A|----------------------------------------------------|
E|----------------------------------------------------|

E|------5----------|
B|--10--5----------|
G|--10--5----------|
D|--10--7----------|
A|-----------------|
E|-----------------|

Suggest correction
What's this?
You can suggest a correction to this tab. Community and Mods will review your correction and vote to approve or reject it.
comments
We did not receive enough feedback on this tab! Please rate:
print report bad tab
1 2 3 4 5
1 comment total.
0 reply
samfarr93 169 wrote on February 13 2012, 12:47 pm

Sorry for the title, not sure why it came up without the and :/

guest
You may want to rate the tab now too:
select rating
Please do not post tabs as comments. Select "correction" instead!