Oops, an error
Loading. Please wait.

Mucho Mas Tab

version 1
version 1

Intro

Whole song

444 views 1 this week
1 commentread comment
1 2 3 4 5
excellent!
x 1
add to favorites
launch autoscroll
font size
0
reset
how to read this tab
guitar tuner
Tab Pro tools
  • play this tab
  • loop segment
  • change instrument
  • show fretboard
  • metronome
Autoscroll
slow
fast
+/-
esc
set tempo
stop
Contributor
Difficulty
novice
                 Mucho Mas - We Are Scientists
----------------------------------------------------------------------------
Tabbed by: dono91


I saw this tab was half-requested by 'FinderofNemo', so I thought I'd tab it out. Played 
some distortion and loads or reverb, especially for the solo. A very easy song to play, 
Please e-mail or pm me with any corrections.

Intro Section
e|----------------------------------------------------------------------|
B|----------------------------------------------------------------------|
G|----------------------------------------------------------------------|
D|----------------------------------------------------------------------|
A|-2-2-2-2-2-2-0-0---------------------------------2-2-2-2-2-5-5-5------|
E|-----------------2-2-2-2-2-2-2-2-0-0-0-0-0-0-0-0----------------------| x3

e|----------------------------------------------------------------------|
B|----------------------------------------------------------------------|
G|----------------------------------------------------------------------|
D|----------------------------------------------------------------------|
A|-2-2-2-2-2-2-0-0---------------------------------2-2-2-2-2-2-2-2------|
E|-----------------2-2-2-2-2-2-2-2-0-0-0-0-0-0-0-0----------------------|


Riff 2
e|----------------------------------------------------------------------|
B|----------------------------------------------------------------------|
G|----------------------------------------------------------------------|
D|----------------------------------------------------------------------|
A|-5-5-5-5-5-5-5-5-4-4-4-4-4-4-4-4-2-2-2-2-2-2-2-2-2-2-2-2-2-2-2-2------|
E|----------------------------------------------------------------------|

e|----------------------------------------------------------------------|
B|----------------------------------------------------------------------|
G|----------------------------------------------------------------------|
D|----------------------------------------------------------------------|
A|-5-5-5-5-5-5-5-5-4-4-4-4-4-4-4-4---Then back to intro section---------|
E|----------------------------------------------------------------------|

After playing the intro section again, this is played

e|----------------------------------------------------------------------|
B|----------------------------------------------------------------------|
G|----------------------------------------------------------------------|
D|----------------------------------------------------------------------|
A|-5-5-5-5-5-5-5-5-7-7-7-7-7-7-7-7-4-4-4-4-4-4-4-4-5-5-5-5-5-5-5-5------|
E|----------------------------------------------------------------------| x2

e|----------------------------------------------------------------------|
B|----------------------------------------------------------------------|
G|----------------------------------------------------------------------|
D|-4-4-4-4-4-4-4-4---------------------------------4-4-4-4-4-4-4-4------|
A|-----------------4-4-4-4-4-4-4-4-5-5-5-5-5-5-5-5----------------------|
E|----------------------------------------------------------------------| x2

e|----------------------------------------------------------------------|
B|----------------------------------------------------------------------|
G|----------------------------------------------------------------------|
D|-4-4-4-4-4-4-4-4-2-2-2-2-2-2-2-2--------------------------------------|
A|---------------------------------4-4-4-4-4-4-4-4-5-5-5-5-5-5-5-5------|
E|----------------------------------------------------------------------|

e|----------------------------------------------------------------------|
B|----------------------------------------------------------------------|
G|----------------------------------------------------------------------|
D|----------------------------------------------------------------------|
A|-5-5-5-5-5-5-5-5-7-7-7-7-7-7-7-7-4-4-4-4-4-4-4-4-5-5-5-5-5-5-5-5------|
E|----------------------------------------------------------------------|


e|-10-------10-------9-------9-------9------9------10-------10----------|
B|----12-------12------10------10------9------9-------11-------11-------|
G|-------11-------11------9-------9------9------9--------12-------12----|
D|----------------------------------------------------------------------|
A|----------------------------------------------------------------------|
E|----------------------------------------------------------------------| x2

e|(-10---------9---------9---------10-------)------------------------------|
B|(-12---------10--------9---------12-------)-x2---------------------------|
G|(-11--(x8)---9--(x8)---9--(x8)---11--(x8)-)------------------------------|
D|-------------------------------------------------------------------------|
A|-----------------------------------------------9-(x16 and gradually bend)|
E|-------------------------------------------------------------------------|


Solo (tremolo these notes):

e|--19-------------17----------------19-------------21-(and gradually bend)|
B|---------19--------------15----------------19----------------------------|
G|-------------------------------------------------------------------------|
D|-------------------------------------------------------------------------|
A|-------------------------------------------------------------------------|
E|-------------------------------------------------------------------------|


============================================================================
comments
We did not receive enough feedback on this tab! Please rate:
print report bad tab
1 2 3 4 5
1 comment total.
0 reply
FinderofNemo wrote on July 18 2007, 02:51 am

Good tab man, thanks

I want to post or [tab]
guest
You may want to rate the tab now too:
select rating
Please do not post tabs as comments. Select "correction" instead!