Oops, an error
Loading. Please wait.

Nice Guys Tab

6,734 views 3 this week
no commentswrite comment
1 2 3 4 5
x 11
add to favorites
launch autoscroll
font size
0
reset
how to read this tab
guitar tuner
Autoscroll
slow
fast
+/-
esc
set tempo
stop
Help us to improve Ultimate-Guitar.com Take our survey!
×
Author
Difficulty
novice
Fantasticly catchy new single from some of America's finest
This should be pretty much spot on, let me know if you think it could be improved :)

Intro/Break between verses n' stuff
e|------------------------------------------------|
B|12-12-12-12-14-14-14-14-12-12-12-12-14-14-14-14-|
G|14-14-14-14-14-14-14-14-14-14-14-14-14-14-14-14-|
D|14-14-14-14-14-14-14-14-14-14-14-14-14-14-14-14-|
A|------------------------------------------------|
E|------------------------------------------------|

Verse - Palm Muted until last time through
e|-----------------------------------------------------|
B|----12----12----12----12------14----14----14----14---|
G|--13----13----13----13------14----14----14----14-----|
D|14----14----14----14----1414----14----14----14----14-|
A|-----------------------------------------------------|
E|-----------------------------------------------------|

I think Keith plays it like this
e|0-4-7-0-4-7-0-4-7-0-4-7-0-4-7-0-0-5-9-0-5-9-0-5-9-0-5-9-0-5-9-0-|
B|----------------------------------------------------------------|
G|----------------------------------------------------------------|
D|----------------------------------------------------------------|
A|----------------------------------------------------------------|
E|----------------------------------------------------------------|

Pre Chorus "If your the nice guy..."
e|-----------------------------------------------------------------|
B|--12--12--12--12--14--14--14--14--12--12--12--12--14--14--14--14-|
G|14--14--14--14--14--14--14--14--14--14--14--14--14--14--14--14---|
D|-----------------------------------------------------------------|
A|-----------------------------------------------------------------|
E|-----------------------------------------------------------------|

Chorus
e|-------------------------------------------|
B|-------------------------------------------|
G|11111111111111111111-----------------------|
D|xxxxxxxxxxxxxxxxxxxx1111111111111111111111-|
A|9-9-9-9-9-9-9-9-9-9-xxxxxxxxxxxxxxxxxxxxxx-|
E|--------------------9-9-9-9-9-9-9-9-9-9-9--|x1

e|-------------------------------------------|
B|-------------------------------------------|
G|11111111111111111/14-----------------------|
D|xxxxxxxxxxxxxxxxx/xx1111111111111111111111-|
A|9-9-9-9-9-9-9-9-9/12xxxxxxxxxxxxxxxxxxxxxx-|
E|--------------------9-9-9-9-9-9-9-9-9-9-9--|x1

e|------------------------------|
B|------------------------------|
G|13-13-13-13-13-13-13-13-13-13-|
D|xx-xx-xx-xx-xx-xx-xx-xx-xx-xx-|
A|11-11-11-11-11-11-11-11-11-11-|
E|------------------------------|x1

e|------------------------------|
B|------------------------------|
G|18-18-18-18-18-14-14-14-14-14-|
D|xx-xx-xx-xx-xx-xx-xx-xx-xx-xx-|
A|16-16-16-16-16-12-12-12-12-12-|
E|------------------------------|x2

Intro

Verse

Pre Chorus

Chorus

Break 
e|---7--/------12--10-|
B|--7-7-/----10--10---|
G|-8---8/--11---------|
D|9-----/12-----------|
A|--------------------|
E|--------------------|

Pre Chorus

Stop playing for a bit whilst a keyboard plays

Chorus

Intro until the end

There ya go, actually pretty easy to play but fun nonetheless..ENJOY!! :)
Suggest correction
comments
print report bad tab
guest
You may want to rate the tab now too:
select rating
Wanna post a correction for this tab? Suggest correction