Oops, an error
Loading. Please wait.

Pittsburgh Tab

612 views 4 this week
no commentswrite comment
1 2 3 4 5
please rate
add to favorites
launch autoscroll
font size
0
reset
how to read this tab
guitar tuner
Tab Pro tools
  • play this tab
  • loop segment
  • change instrument
  • show fretboard
  • metronome
×
Best way to learn
"Pittsburgh"
Autoscroll
slow
fast
+/-
esc
set tempo
stop
Contributor
We Are Scientists - Pittsburgh (Live version)

Intro + verse 1
e|---------------------------------|
B|-----9---12---9------------------|
G|---9---9----9---9-8---9---8---8b-|
D|--------------------9---9---9----|(x6)
A|---------------------------------|
E|-0-------------------------------|

e|----------12----------------------------|
B|------9--------12---------9----------9b-|
G|----9---9----9----9-11---------11-------|
D|-11--------------------11---11----11----|(x2)
A|----------------------------------------|
E|----------------------------------------|

e|---------------------------------|
B|-----9---12---9------------------|
G|---9---9----9---9-8---9---8---8b-|
D|--------------------9---9---9----|(x2)
A|---------------------------------|
E|-0-------------------------------|

e|----------12----------------------------|
B|------9--------12---------9----------9b-|
G|----9---9----9----9-11---------11-------|
D|-11--------------------11---11----11----|(x2)
A|----------------------------------------|
E|----------------------------------------|

Chorus
e|-11----11----12----12----10----10----12----12----|
B|----12----12----12----12----12----12----12----12-|
G|-------------------------------------------------|
D|-------------------------------------------------|
A|-------------------------------------------------|
E|-------------------------------------------------|
                                                      (x2)
e|-9----9----12----12----12----12----12----12----|
B|---12---12----12----12----12----12----12----12-|
G|-----------------------------------------------|
D|-----------------------------------------------|
A|-----------------------------------------------|
E|-----------------------------------------------|

Verse 2
e|---------------------------------|
B|-----9---12---9------------------|
G|---9---9----9---9-8---9---8---8b-|
D|--------------------9---9---9----|(x4)
A|---------------------------------|
E|-0-------------------------------|

e|----------12----------------------------|
B|------9--------12---------9----------9b-|
G|----9---9----9----9-11---------11-------|
D|-11--------------------11---11----11----|(x2)
A|----------------------------------------|
E|----------------------------------------|

Chorus
e|-11----11----12----12----10----10----12----12----|
B|----12----12----12----12----12----12----12----12-|
G|-------------------------------------------------|
D|-------------------------------------------------|
A|-------------------------------------------------|
E|-------------------------------------------------|
                                                      (x2)
e|-9----9----12----12----12----12----12----12----|
B|---12---12----12----12----12----12----12----12-|
G|-----------------------------------------------|
D|-----------------------------------------------|
A|-----------------------------------------------|
E|-----------------------------------------------|

Bridge
e|-0---0---0---0---0---0---0---0---|
B|---0---0---0---0---0---0---0---0-|
G|---------------------------------|
D|---------------------------------|
A|---------------------------------|
E|---------------------------------|

e|-----4------4------7------7--|-----4------4------7------6-|
B|---5------5------9------7----|---5------6------9------7---|
G|-6------6------9------8------|-6------6------9------8-----|
D|-----------------------------|----------------------------|
A|-----------------------------|----------------------------|
E|-----------------------------|----------------------------|

e|-----2------2------4--------4---|
B|-----2------2--------5--------5-|
G|-----3------3----6-------6------|
D|---4------4----6-------6--------|(x2)
A|-4------4-----------------------|
E|--------------------------------|

Chorus
e|-11----11----12----12----10----10----12----12----|
B|----12----12----12----12----12----12----12----12-|
G|-------------------------------------------------|
D|-------------------------------------------------|
A|-------------------------------------------------|
E|-------------------------------------------------|
                                                      (x2)
e|-9----9----12----12----12----12----12----12----|
B|---12---12----12----12----12----12----12----12-|
G|-----------------------------------------------|
D|-----------------------------------------------|
A|-----------------------------------------------|
E|-----------------------------------------------|

Outro
e|---------------------------------|
B|-----9---12---9------------------|
G|---9---9----9---9-8---9---8---8b-|
D|--------------------9---9---9----|(x12)
A|---------------------------------|
E|-0-------------------------------|
comments
We did not receive enough feedback on this tab! Please rate:
print report bad tab
1 2 3 4 5
I want to post or [tab]
guest
You may want to rate the tab now too:
select rating
Please do not post tabs as comments. Select "correction" instead!