Oops, an error
Loading. Please wait.

Rules Dont Stop Tab

6,009 views 1 this week
2 commentsread comments
1 2 3 4 5
excellent!
x 3
add to favorites
launch autoscroll
font size
0
reset
how to read this tab
guitar tuner
Autoscroll
slow
fast
+/-
esc
set tempo
stop
Help us to improve Ultimate-Guitar.com Take our survey!
×
Author
DaveS9 184
---------------------------------------------------------------------------
                   RULES DONT STOP – We Are Scientists
---------------------------------------------------------------------------
Tabbed by: DaveS
Tuning: Standard

Great new song from these guys. 
Tabbed from a mix of the recorded track and a video of it live.

INTRO, not sure about the effects on this one...
e|------------------------------------------------------------------------|
B|------------------------------------------------------------------------|
G|-7----6----7----9----7----6----7----11----------------------------------|
D|---9----9----9----9----9----9----9-----9--------------------------------|
A|------------------------------------------------------------------------|
E|------------------------------------------------------------x2----------|

VERSE, slightly muted, timings change a lot, so listen to the track
e|----------------------------------------10------------------------------|
B|-12121212121212-10-----1212121212-10-12---12-10-------------------------|
G|------------------------------------------------------------------------|
D|------------------------------------------------------------------------|
A|------------------------------------------------------------------------|
E|-------------------------------------------------------------x3---------|

e|------------------------------------------------------------------------|
B|-12121212121212-10-----12121212121212-10--------------------------------|
G|------------------------------------------------------------------------|
D|------------------------------------------------------------------------|
A|------------------------------------------------------------------------|
E|-------------------------------------------------------------x1---------|

Repeat

CHORUS 
e|------------------------------------------------------------------------|
B|------------------------------------------------------------------------|
G|-----------------11-11---------11-11b12-9-11----------------------------|
D|-12-12-9-9-12-12-------12-12-9------------------------------------------|
A|------------------------------------------------------------------------|
E|-------------------------------------------------------------x3---------|

e|------------------------------------------------------------------------|
B|------------------------------------------------------------------------|
G|-----------------11-11-----------------11-11----------------------------|
D|-12-12-9-9-12-12-------12-12-9-9-12-12----------------------------------|
A|------------------------------------------------------------------------|
E|--------------------------------------------------------------x1--------|

VERSE 
e|----------------------------------------10------------------------------|
B|-12121212121212-10-----1212121212-10-12---12-10-------------------------|
G|------------------------------------------------------------------------|
D|------------------------------------------------------------------------|
A|------------------------------------------------------------------------|
E|-------------------------------------------------------------x3---------|

e|------------------------------------------------------------------------|
B|-12121212121212-10-----12121212121212-10--------------------------------|
G|------------------------------------------------------------------------|
D|------------------------------------------------------------------------|
A|------------------------------------------------------------------------|
E|-------------------------------------------------------------x1---------|

Leave your hang-ups...
e|------------------------------------------------------------------------|
B|------------------------------------------------------------------------|
G|-7----6----7----9----7----6----7----11----------------------------------|
D|---9----9----9----9----9----9----9-----9--------------------------------|
A|------------------------------------------------------------------------|
E|------------------------------------------------------------x3----------|

e|------------------------------------------------------------------------|
B|--------------------7-------7------7~~----------------------------------|
G|-7----6----7----9------7------7-----------------------------------------|
D|---9----9----9----9------9------9---------------------------------------|
A|------------------------------------------------------------------------|
E|------------------------------------------------------------x2----------|

CHORUS 
e|------------------------------------------------------------------------|
B|------------------------------------------------------------------------|
G|-----------------11-11---------11-11b12-9-11----------------------------|
D|-12-12-9-9-12-12-------12-12-9------------------------------------------|
A|------------------------------------------------------------------------|
E|-------------------------------------------------------------x3---------|

e|------------------------------------------------------------------------|
B|------------------------------------------------------------------------|
G|-----------------11-11-----------------11-11----------------------------|
D|-12-12-9-9-12-12-------12-12-9-9-12-12----------------------------------|
A|------------------------------------------------------------------------|
E|--------------------------------------------------------------x1--------|

Then 
e|------------------------------------------------------------------------|
B|------------------------------------------------------------------------|
G|-7----6----7----9----7----6----7----11----------------------------------|
D|---9----9----9----9----9----9----9-----9--------------------------------|
A|------------------------------------------------------------------------|
E|------------------------------------------------------------x2----------|

Its not as bad as they say...
e|------------------------------------------------------------------------|
B|-------------------------------------------------5-5-5------------------|
G|-7-7-7-6-6-6-----7-7-7-6-6-6-----7-7-7-6-6-6-----------7-7-7-6-6--------|
D|-------------7-7-------------7-7-------------7-7------------------------|
A|------------------------------------------------------------------------|
E|------------------------------------------------------------------------|

e|------------------------------------------------------------------------|
B|------------------------------------------------------------------------|
G|-7-7-7-6-6-6-----7-7-7-6-6-6-----7-7-7-6-6-6------7----6----7----11-----|
D|-------------7-7-------------7-7-------------7-7----9----9----9---------|
A|------------------------------------------------------------------------|
E|------------------------------------------------------------------------|

CHORUS 
e|------------------------------------------------------------------------|
B|------------------------------------------------------------------------|
G|-----------------11-11---------11-11b12-9-11----------------------------|
D|-12-12-9-9-12-12-------12-12-9------------------------------------------|
A|------------------------------------------------------------------------|
E|-------------------------------------------------------------x3---------|

e|------------------------------------------------------------------------|
B|------------------------------------------------------------------------|
G|-----------------11-11-----------------11-11----------------------------|
D|-12-12-9-9-12-12-------12-12-9-9-12-12----------------------------------|
A|------------------------------------------------------------------------|
E|--------------------------------------------------------------x2--------|

End on
e|------------------------------------------------------------------------|
B|-10~~/------------------------------------------------------------------|
G|------------------------------------------------------------------------|
D|------------------------------------------------------------------------|
A|------------------------------------------------------------------------|
E|------------------------------------------------------------------------|

Enjoy :)

************************************

| /   slide up
| \   slide down
| h   hammer-on
| p   pull-off
| ~   vibrato
| +   harmonic
| x   Mute note
| b   Bend
| pb  Pre-bend
| br  Bend release
| pbr Pre-bend release
| brb Bend release bend

************************************

Suggest correction new What's this?
You can suggest a correction to this tab. Community and Mods will review your correction and vote to approve or reject it.
comments
We did not receive enough feedback on this tab! Please rate:
print report bad tab
1 2 3 4 5
2 comments total.
0 reply
andypeter 37 wrote on April 22 2010, 09:15 pm

i love it, the song and the tab, 100%

+1 reply
BuckleyFanTom 42 wrote on June 2 2010, 10:00 am

On the intro riff, it's alot easier to play the F# on the B string

guest
You may want to rate the tab now too:
select rating
Please do not post tabs as comments. Select "correction" instead!