Oops, an error
Loading. Please wait.

Sie Hat Was Vermisst Tab

version 1
version 1

Whole song

109 views 1 this week
no commentswrite comment
1 2 3 4 5
please rate
add to favorites
launch autoscroll
font size
0
reset
how to read this tab
guitar tuner
Autoscroll
slow
fast
+/-
esc
set tempo
stop
Help us to improve Ultimate-Guitar.com Take our survey!
×
Author
Difficulty
samfarr93 169
novice
e|------------------------x-x-|
B|------------------------x-x-|
G|---------------------2~-x-x-|
D|------2-0--------2-0----x-x-|(x10)
A|-0--3-------0--3--------x-x-|
E|------------------------x-x-|

  wb
e|-0-|
B|-1-|
G|-2-|
D|-2-|
A|-0-|
E|---|

e|------------------------x-x-|
B|------------------------x-x-|
G|---------------------2~-x-x-|
D|------2-0--------2-0----x-x-|(x2)
A|-0--3-------0--3--------x-x-|
E|------------------------x-x-|

  wb
e|-0-|
B|-1-|
G|-2-|
D|-2-|
A|-0-|
E|---|

e|-----------------------|-----------------------|---------------------|
B|-----------------------|-----------------------|----0-0--------------|
G|-2--0------------------|-2--0------------------|-2------0--2---------|
D|--------2-0-2----------|--------2-0-2------0-2-|-------------2-2-0---|
A|---------------3-3-2-0-|---------------3-3-----|-------------------3-|
E|-----------------------|-----------------------|---------------------|

           wb      wb
e|----------0------5-|
B|---0-0----1------5-|
G|-2-----0--2------5-|
D|----------2--------|
A|----------0--------|
E|-------------------|

e|------------------------x-x-|
B|------------------------x-x-|
G|---------------------2~-x-x-|
D|------2-0--------2-0----x-x-|(x3)
A|-0--3-------0--3--------x-x-|
E|------------------------x-x-|

  wb
e|-0-|
B|-1-|
G|-2-|
D|-2-|
A|-0-|
E|---|


This is where Keiths vocals come in and its very hard to hear any guitar so I play this 
and it sounds alright:
                                               wb
e|-0--x--x--x--3--x--x--x--0--x--x--x--5-|
B|-1--x--x--x--3--x--x--x--1--x--x--x--5-|
G|-2--x--x--x--4--x--x--x--2--x--x--x--5-|
D|-2--x--x--x--5--x--x--x--2--x--x--x----|(x8)
A|-0--x--x--x--5--x--x--x--0--x--x--x----|
E|----x--x--x--3--x--x--x-----x--x--x----|

Outro:
e|-------------------|
B|-1-0---------------|
G|-----2-0-----------|
D|---------2b----0-2-|(x6)
A|-------------3-----|
E|-------------------|

e|------------------------|
B|-1-0-/3-----------------|
G|--------2-4-5-----------|
D|--------------2b----0-2-|
A|------------------3-----|
E|------------------------|

e|---------------------------------|
B|-1-0-/3--------------------------|
G|--------2-4-5--0-2-2-------------|
D|---------------------------------|
A|---------------------3-3-3-3-2-2-|
E|---------------------------------|

e|--------------------------------|
B|-1-0-/3-------------------------|
G|--------2-4-5-------------------|
D|--------------2b----------------|
A|------------------3-3-3-3-2-2-0-|
E|--------------------------------|

Key:
wb - whammy bar
b - bend
~ - vibrato
x - mute strings
/ - slide
Suggest correction new What's this?
You can suggest a correction to this tab. Community and Mods will review your correction and vote to approve or reject it.
comments
We did not receive enough feedback on this tab! Please rate:
print report bad tab
1 2 3 4 5
guest
You may want to rate the tab now too:
select rating
Please do not post tabs as comments. Select "correction" instead!