Oops, an error
Loading. Please wait.

Spotomatic Freeze Tab

version 1
version 1

Whole song

114 views 1 this week
1 commentread comment
1 2 3 4 5
please rate
add to favorites
launch autoscroll
font size
0
reset
how to read this tab
guitar tuner
Autoscroll
slow
fast
+/-
esc
set tempo
stop
Help us to improve Ultimate-Guitar.com Take our survey!
×
Author
We Are Scientists - Spotomatic Freeze

Album = Safety, Fun, And Learning (In That Order)

this is my very first tab and im pretty sure most of its nearly their. This song is 
with 2 guitar parts, i ahve tabbed it for one but all the sections are here, you will have 
work out where the 2nd guitar parts go though.

of course if you have any questions or corrections please message me.


* = Palm Muted
P = Pull off

Intro:


E|------------------------------------------------------------|
A|------------------------------------------------------------|
D|------------------------------------------------------------| Repeat 8 Times
G|------------------------------------------------------------|
B|-----10p-0---------9p-0-------7p-0-------5p-0---------------|
E|------------------------------------------------------------|

Then end the intro with this:

E|------------------------------------------------------------|
A|------------------------------------------------------------|
D|------------------------------------------------------------|
G|------------------------------------------------------------|
B|-----10----10-----------------------------------------------|
E|------------------------------------------------------------|


Verse (mainly bass, the guitar occasionally comes in with this):

E|-------------------------------------------------------------|
A|-------------------------------------------------------------|
D|-------------------------------------------------------------|
G|-------------------------------------------------------------|
B|------12--------14-------------------------------------------|Sustain These
E|-------------------------------------------------------------|


Chorus

(you get the rythm of the mutes)
                                                                                         
                                                                                        
             (slide up)
E|--------5-5-x-x------------------------------------1-1---3-3---|
A|--------7-7-x-x-------5-5-x-x-------2-2-x-x--------3-3---5-5---|
D|--------7-7-x-x-------7-7-x-x-------4-4-x-x--------3-3---5-5---|Repeat 5 times
G|----------------------7-7-x-x-------4-4-x-x--------------------|
B|---------------------------------------------------------------|
E|---------------------------------------------------------------|


Verse

PM        * *            * *           * *           *     *
E|--------5-5--5-5-----------------------------------1-1---3-3---|
A|--------7-7--7-7-------5-5-5-5-------2-2-2-2-------3-3---5-5---|
D|--------7-7--7-7-------7-7-7-7-------4-4-4-4-------3-3---5-5---|Repeat 8 Times
G|-----------------------7-7-7-7-------4-4-4-4-------------------|
B|---------------------------------------------------------------|
E|---------------------------------------------------------------|

On the 8th time, leave the last 'G' chord off.

Chorus
                                                                                         
                                               (slide up)
E|--------5-5-x-x----------------------------------1-1---3-3-------|
A|--------7-7-x-x-------5-5-x-x-------2-2-x-x------3-3---5-5-------|
D|--------7-7-x-x-------7-7-x-x-------4-4-x-x------3-3---5-5-------|Repeat 3 times
G|----------------------7-7-x-x-------4-4-x-x----------------------|
B|-----------------------------------------------------------------|
E|-----------------------------------------------------------------|

On the 3rd time, just play the 'F' chord ONCE

(THE REST IM NOT 100% SURE OF)

Then it breaks sown to drums and the singing, then this:

E|------------------------------------------------------------------|
A|------------------------------------------------------------------|
D|------------------------------------------------------------------|
G|------------------------------------------------------------------|
B|-------14---12----------14----12--0-------------------------------|
E|------------------------------------------------------------------|


   PM       * * *         * * *         * * *         * * *
E|--------5-5-5-5-----------------------------------------------------|
A|--------7-7-7-7-------5-5-5-5-------2-2-2-2-------5-5-5-5-----------|
D|--------7-7-7-7-------7-7-7-7-------4-4-4-4-------7-7-7-7-----------|
G|----------------------7-7-7-7-------4-4-4-4-------7-7-7-7-----------|
B|--------------------------------------------------------------------|
E|--------------------------------------------------------------------|


   PM       * * *         * * *
E|--------5-5-5-5------------------------------------------------------|
A|--------7-7-7-7-------5-5-5-5-------2-2-2-2-2-2-2-2------------------|
D|--------7-7-7-7-------7-7-7-7-------4-4-4-4-4-4-4-4------------------|
G|----------------------7-7-7-7-------4-4-4-4-4-4-4-4------------------|
B|---------------------------------------------------------------------|
E|---------------------------------------------------------------------|

Small bass section before the last chorus

Chorus

(slide up)
E|-------5-5-x-x---------------------------------1-1---3-3---------|
A|-------7-7-x-x-------5-5-x-x------2-2-x-x------3-3---5-5---------|
D|-------7-7-x-x-------7-7-x-x------4-4-x-x------3-3---5-5---------|Repeat 6 times
G|---------------------7-7-x-x------4-4-x-x------------------------|
B|-----------------------------------------------------------------|
E|-----------------------------------------------------------------|


On the 6th time end one ONE 'F' chord


Ok, That my first EVER tab, if you like any part of it please rate it, i think tis pretty near.


hope you like it!
Suggest correction
Give kudos to tab author, rate the tab!
1 2 3 4 5
comments
print report bad tab
1 comment total.
0 reply
GLP_Arclite 54 wrote on November 11 2006, 04:41 am

its upside down...

other than that its mostly right

guest
You may want to rate the tab now too:
select rating
Wanna post a correction for this tab? Suggest correction