Oops, an error
Loading. Please wait.

Spotomatic Freeze Tab

version 2
version 2

Whole song

441 views 1 this week
no commentswrite comment
1 2 3 4 5
excellent!
x 3
add to favorites
launch autoscroll
font size
0
reset
how to read this tab
guitar tuner
Autoscroll
slow
fast
+/-
esc
set tempo
stop
Help us to improve Ultimate-Guitar.com Take our survey!
×
Author
-------------------------------------------------------------------------------
                             Spotomatic Freeze - We Are Scientists
-------------------------------------------------------------------------------
Tabbed by: Aron S
Email: goodsum@hotmail.com

Tuning: Standard


Intro

(guitar 1) -play fast-
e|--7-x-5-x-4-x-5-x-7-x-5-x-4-x-5-x-7-x-5-x-4-x-5-x-7-x-5-44-2p0--|
B|----------------------------------------------------------------|
G|----------------------------------------------------------------|
D|----------------------------------------------------------------| x2
A|----------------------------------------------------------------|
E|----------------------------------------------------------------|

e|--5-5--|
B|-------|
G|-------|
D|-------| 
A|-------|
E|-------|


(guitar 2)
e|----------7--/9---------------------------|
B|------------------------------------------|
G|------------------------------------------|
D|------------------------------------------|
A|------------------------------------------|
E|------------------------------------------|

e|----------7--/9-h10-p9-/7-/5--------------|
B|------------------------------------------|
G|------------------------------------------|
D|------------------------------------------|
A|------------------------------------------|
E|------------------------------------------|



Verse

(guitar 2) 0:42
e|----------7--/9---------------------------|
B|------------------------------------------|
G|------------------------------------------|
D|------------------------------------------|
A|------------------------------------------|
E|------------------------------------------|


Chorus

(guitar 1)
e|------------------------------------|
B|------------------------------------|
G|----------7-7-xx--------------------|
D|--7-7-xx--7-7-xx--9-9--xx--3-3-2-2--|
A|--7-7-xx--5-5-xx--9-9--xx--3-3-2-2--|
E|--5-5-xx----------7-7--xx--1-1-0-0--|


(guitar 2) 1:16
e|----------7--/9-h10-p9-/7-/5--------------|
B|------------------------------------------|
G|------------------------------------------|
D|------------------------------------------|
A|------------------------------------------|
E|------------------------------------------|


Verse 2

(guitar 1)
e|-----------------------------|
B|-----------------------------|
G|------6-----7-----8---2---1--|
D|--------7-7------------------| x4
A|--7-7---5-5---9-9---3---2----|
E|--5-5---------7-7---1---0----|


(guitar 2) 1:37
e|----------7--/9---------------------------|
B|------------------------------------------|
G|------------------------------------------|
D|------------------------------------------|
A|------------------------------------------|
E|------------------------------------------|


Bridge

(guitar 1)
e|-----------------------|
B|-----------------------|
G|--7-----------9-----7--|
D|--7-----7-----9-----7--| x3
A|--5-----7-----7-----5--|
E|--------5--------------|

e|-----------------|
B|-----------------|
G|--7-----7-----9--|
D|--7-----7-----9--|
A|--5-----5-----7--|
E|-----------------|


(guitar 2) 2:32
e|------12---------5----------------5----------------|
B|---------10\-----7----------------5----------------|
G|--9--------------7-7-7-7-7-7-7-7--6----------------|
D|----7------------7-7-7-7-7-7-7-7--7-7-7-7-7-7-7-7--|
A|-----------------5-5-5-5-5-5-5-5--7-7-7-7-7-7-7-7--|
E|----------------------------------5-5-5-5-5-5-5-5--|
                     (     pm    )    (    pm     )

e|--7---------------|-5----------------|-------------------|
B|--9---------------|-7----------------|-------------------|
G|--9-9-9-9-9-9-9-9-|-7-7-7-7-7-7-7-7--|--9-9-9-9-9-9-9-9--|
D|--9-9-9-9-9-9-9-9-|-7-7-7-7-7-7-7-7--|--9-9-9-9-9-9-9-9--|
A|--7-7-7-7-7-7-7-7-|-5-5-5-5-5-5-5-5--|--7-7-7-7-7-7-7-7--|
E|------------------|------(x3)--------|-------------------|
      (    pm     )     (    pm     )


(play intro over final chorus at 3:09)


| /  slide up
| \  slide down
| h  hammer-on
| p  pull-off
| ~  vibrato
| +  harmonic
| x  Mute note
| pm Palm Mute
===============================================================================
Suggest correction
Give kudos to tab author, rate the tab!
1 2 3 4 5
comments
print report bad tab
guest
You may want to rate the tab now too:
select rating
Please do not post tabs as comments. Select "correction" instead!