Oops, an error
Loading. Please wait.

Surprise Tab

176 views 1 this week
1 commentread comment
1 2 3 4 5
2 more votes to show rating
add to favorites
launch autoscroll
font size
0
reset
how to read this tab
guitar tuner
Autoscroll
slow
fast
+/-
esc
set tempo
stop
Help us to improve Ultimate-Guitar.com Take our survey!
×
Difficulty
novice
Hey there is basically 1 main tune to this song, it goes like this:

e----12----------------|
B------10-12-13-12-10--|
G----------------------|
D----------------------|
A----------------------|
E----------------------|

There are chords in the verse, but iv only worked out the first 1:

e---12~
B---13~
G-----
D-----
A-----
E-----
Suggest correction
Give kudos to tab author, rate the tab!
1 2 3 4 5
comments
print report bad tab
1 comment total.
0 reply
dono91 75 May 05, 2006 02:32 PM

the 2 chords in the verse are C (no5) and Am (no5):

e--12~-----------
B--13~-x4--13~---
G----------14~-x4
D----------------
A----------------
E----------------

guest
You may want to rate the tab now too:
select rating
Wanna post a correction for this tab? Suggest correction