Oops, an error
Loading. Please wait.

Textbook Tab

version 1
version 1

Whole song

4,529 views 9 this week
no commentswrite comment
1 2 3 4 5
excellent!
x 5
add to favorites
launch autoscroll
font size
0
reset
how to read this tab
guitar tuner
Tab Pro tools
  • play this tab
  • loop segment
  • change instrument
  • show fretboard
  • metronome
Autoscroll
slow
fast
+/-
esc
set tempo
stop
Contributor
Difficulty
novice
This is my first tab, so go easy on me. By the way...This band rules.

INTOR/VERSE
e|-----------------------------------|
B|-----------------------------------|
G|-99999999888888889999999988888888--|
D|-----------------------------------|
A|-----------------------------------|
E|-----------------------------------|x2 (last time, bend the 8)
----------TREMELO PICKING--------------

PRE-CHORUS
e|---------------------------------------------|
B|--1010101010101010-99999999-1212121212121212-|
G|---------------------------------------------|
D|---------------------------------------------|
A|---------------------------------------------|
E|---------------------------------------------|
------------------TREMELO PICKING--------------

e|---------------------------------------------|
B|-99999999-1010101010101010-1212121212121212--|
G|---------------------------------------------|
D|---------------------------------------------|
A|---------------------------------------------|
E|---------------------------------------------|
-----------------TREMELO PICKING---------------

e|------------------------------------------------|
B|-99999999-1010101010101010-99999999-------------|
G|------------------------------------9(let ring)-|
D|------------------------------------------------|
A|------------------------------------------------|
E|------------------------------------------------|
-------------------TREMELO PICKING---------------

VERSE
e|-----------------------------------|
B|-----------------------------------|
G|-99999999888888889999999988888888--|
D|-----------------------------------|
A|-----------------------------------|
E|-----------------------------------|
----------TREMELO PICKING--------------

PRE-CHORUS
e|---------------------------------------------|
B|--1010101010101010-99999999-1212121212121212-|
G|---------------------------------------------|
D|---------------------------------------------|
A|---------------------------------------------|
E|---------------------------------------------|
------------------TREMELO PICKING--------------

e|---------------------------------------------|
B|-99999999-1010101010101010-1212121212121212--|
G|---------------------------------------------|
D|---------------------------------------------|
A|---------------------------------------------|
E|---------------------------------------------|
-----------------TREMELO PICKING---------------

e|------------------------------------------------|
B|-99999999-1010101010101010-99999999-------------|
G|------------------------------------9(let ring)-|
D|------------------------------------------------|
A|------------------------------------------------|
E|------------------------------------------------|
-------------------TREMELO PICKING---------------

CHORUS

e|------------------------------------------------|
B|------------------------------------------------|
G|-6-6-9-9-6-6-9-9-6-6-9-9------------------------|
D|-6-6-9-9-6-6-9-9-6-6-9-9------------------------|
A|-4-4-7-7-4-4-7-7-4-4-7-7------------------------|
E|------------------------------------------------|

e|--------------------|
B|--------------------|
G|-2-4-9-6-2-4--------|
D|-2-4-9-6-2-4--------|
A|-0-2-7-4-0-2--------|
E|--------------------|

VERSE 2
e|-----------------------------------|
B|-----------------------------------|
G|-99999999--------------------------|
D|-----------------------------------|
A|-----------------------------------|
E|-----------------------------------|
--------------TREMELO PICKING---------

e|-------------------------------------------------------------------------|
B|-171717171717-161616161616-141414141414-121212121212-101010101010-999999-|
G|-------------------------------------------------------------------------|
D|-------------------------------------------------------------------------|
A|-------------------------------------------------------------------------|
E|-------------------------------------------------------------------------|
---------------------------------TREMELO PICKING---------------------------

PRE-CHORUS
e|---------------------------------------------|
B|--1010101010101010-99999999-1212121212121212-|
G|---------------------------------------------|
D|---------------------------------------------|
A|---------------------------------------------|
E|---------------------------------------------|
------------------TREMELO PICKING--------------

e|---------------------------------------------|
B|-99999999-1010101010101010-1212121212121212--|
G|---------------------------------------------|
D|---------------------------------------------|
A|---------------------------------------------|
E|---------------------------------------------|
-----------------TREMELO PICKING---------------

e|------------------------------------------------|
B|-99999999-1010101010101010-99999999-------------|
G|------------------------------------9(let ring)-|
D|------------------------------------------------|
A|------------------------------------------------|
E|------------------------------------------------|
-------------------TREMELO PICKING---------------

CHORUS 2

e|------------------------------------------------|
B|------------------------------------------------|
G|-6-6-9-9-6-6-9-9-6-6-9-9------------------------|
D|-6-6-9-9-6-6-9-9-6-6-9-9------------------------|
A|-4-4-7-7-4-4-7-7-4-4-7-7------------------------|
E|------------------------------------------------|

e|-------------------------|
B|-------------------------|
G|-2-4-9-6-2-4-6-9-11-12---|
D|-2-4-9-6-2-4-X-X-X--X----|
A|-0-2-7-4-0-2-4-7-9--10---|
E|-------------------------|

e|--------------------|
B|--------------------|
G|-2-4-9-6-2-4--------|
D|-2-4-9-6-2-4--------|
A|-0-2-7-4-0-2--------|
E|--------------------|

OUTRO
e|------------------------------------------------------------------|
B|-------999999------101010101010------999999------10101010-9999-5--|
G|-999999------999999------------999999------999999-----------------|
D|------------------------------------------------------------------|
A|------------------------------------------------------------------|
E|------------------------------------------------------------------|
---------------------------TREMELO PICKING--------------------------

Any questions, e-mail me at: toyota_f1_4ever@hotmail.com
comments
print report bad tab
I want to post or [tab]
guest
You may want to rate the tab now too:
select rating
Please do not post tabs as comments. Select "correction" instead!