Oops, an error
Loading. Please wait.

This Scene Is Dead Tab

version 3
version 3

Whole song

Interactive

590 views 6 this week
no commentswrite comment
1 2 3 4 5
3 more votes to show rating
add to favorites
launch autoscroll
font size
0
reset
how to read this tab
guitar tuner
Autoscroll
slow
fast
+/-
esc
set tempo
stop
Help us to improve Ultimate-Guitar.com Take our survey!
×
Author
Intro
e|------------------------x-|     
B|------------------------x-|     
G|------------------------x-|     
D|--------11(x8)----------x-|(x2) 
A|-12(x8)---------9----(b)x-|     
E|------------------------x-|     

e|---------------------------|
B|---------------------------|
G|---------------------------|
D|--------11(x8)-------------|(x2)
A|-12(x8)---------9(x16)[b]--|
E|---------------------------|

e|-------------------------------------------------------------------|
B|-------------------------------------------------------------------|
G|-------------------------------------------------------------------|
D|--------11-11-9-9--------------------------------------------------|
A|-12(x8)-----------12-12-11-11-9-9-11-11-9-9-12-12-9-9-11-11-9-9-12-|(x2)
E|-------------------------------------------------------------------|

Verse 1
e|------------------------x-|     
B|------------------------x-|     
G|------------------------x-|     
D|--------11(x8)----------x-|(x4) 
A|-12(x8)---------9----(b)x-|     
E|------------------------x-|

Pre-chorus
e|-xx---------------|  
B|-xx---------------|  
G|-xx-16------------|  
D|-xx-x--(x24)/-----|  
A|-xx-14------------|  
E|-xx---------------|  

e|-----------x-----------------------|
B|-----------x-----------------------|
G|-----------x-----------------------|
D|-7--7------9--11-11-11-11-11-11-11-|(x2)
A|-7--7------9--11-11-11-11-11-11-11-|
E|-5--5--\/-----9--9--9--9--9--9--9--|

Chorus
e|---------------------------------|---------------------------------|
B|---------------------------------|---------------------------------|
G|---------------------------------|---------------------------------|
D|-12--12-12-12-12-12\7--7-7-7-7-7-|-12--12-12-12-12-12\7--7-7-7-7-7-|
A|-12--12-12-12-12-12\7--7-7-7-7-7-|-12--12-12-12-12-12\7--7-7-7-7-7-|
E|-10--10-10-10-10-10\5--5-5-5-5-5-|-10--10-10-10-10-10\5--5-5-5-5-5-|

e|----------------------------|---------------------------------|
B|----------------------------|---------------------------------|
G|----------------------------|----------------------7--7-7-7-7-|
D|-4--4-4-4-4-4--7--7-7-7-7-7-|-12--12-12-12-12-12\7-7--7-7-7-7-|
A|-4--4-4-4-4-4--7--7-7-7-7-7-|-12--12-12-12-12-12\7-5--5-5-5-5-|
E|-2--2-2-2-2-2--5--5-5-5-5-5-|-10--10-10-10-10-10\5------------|

Verse 2
e|--------------------------------------------|
B|--------------------------------------------|
G|-----------------------11-11-11-11-11-11-11-|
D|--------11(x8)---------x--x--x--x--x--x--x--|
A|-12(x8)--------9(x8)---9--9--9--9--9--9--9--|(x6)
E|--------------------------------------------|

Pre-chorus
e|-xx---------------|  
B|-xx---------------|  
G|-xx-16------------|  
D|-xx-x--(x24)/-----|  
A|-xx-14------------|  
E|-xx---------------|  

e|-----------x-----------------------|
B|-----------x-----------------------|
G|-----------x-----------------------|
D|-7--7------9--11-11-11-11-11-11-11-|(x2)
A|-7--7------9--11-11-11-11-11-11-11-|
E|-5--5--\/-----9--9--9--9--9--9--9--|

Chorus
e|---------------------------------|---------------------------------|
B|---------------------------------|---------------------------------|
G|---------------------------------|---------------------------------|
D|-12--12-12-12-12-12\7--7-7-7-7-7-|-12--12-12-12-12-12\7--7-7-7-7-7-|
A|-12--12-12-12-12-12\7--7-7-7-7-7-|-12--12-12-12-12-12\7--7-7-7-7-7-|
E|-10--10-10-10-10-10\5--5-5-5-5-5-|-10--10-10-10-10-10\5--5-5-5-5-5-|

e|----------------------------|---------------------------------|
B|----------------------------|---------------------------------|
G|----------------------------|----------------------7--7-7-7-7-|
D|-4--4-4-4-4-4--7--7-7-7-7-7-|-12--12-12-12-12-12\7-7--7-7-7-7-|
A|-4--4-4-4-4-4--7--7-7-7-7-7-|-12--12-12-12-12-12\7-5--5-5-5-5-|
E|-2--2-2-2-2-2--5--5-5-5-5-5-|-10--10-10-10-10-10\5------------|


Bridge
e|---------------------------------------|
B|---------------------------------------|
G|-18--18--18--18-18--21--21-21-21-21-21-|
D|-x---x---x---x--x---x---x--x--x--x--x--|(x4)
A|-16--16--16--16-16--19--19-19-19-19-19-|
E|---------------------------------------|

e|-----------------------------14----------------12--------|
B|-14-12----------12--14-12----------12-14-12-----------12-|
G|-------14-13-14-----------14----14----------14-----14----|
D|---------------------------------------------------------|(x2)
A|---------------------------------------------------------|
E|---------------------------------------------------------|

e|-----------------------------14----------------12-----12---12----12----12-|
B|-14-12----------12--14-12----------12-14-12--------14----14---14----14----|
G|-------14-13-14-----------14----14----------14----------------------------|
D|--------------------------------------------------------------------------|
A|--------------------------------------------------------------------------|
E|--------------------------------------------------------------------------|





e|-------------------------------------------------|
B|-------------------------------------------------|
G|-16-16-16-16-16-16-16-16-16-16-16-16-16-16-16-16-|(x3)
D|-x--x--x--x--x--x--x--x--x--x--x--x--x--x--x--x--| 
A|-14-14-14-14-14-14-14-14-14-14-14-14-14-14-14-14-|
e|-------------------------------------------------|

e|-----------------------------|
B|-----------------------------|
G|-----------------------------|
D|-16-16-16-16-16-16-16-16-16/-|
A|-x--x--x--x--x--x--x--x--xx/-| 
E|-14-14-14-14-14-14-14-14-14/-|

e|-xx---------------|  
B|-xx---------------|  
G|-xx-16------------|  
D|-xx-x--(x24)/-----|  
A|-xx-14------------|  
E|-xx---------------|  

e|-----------x-----------------------|
B|-----------x-----------------------|
G|-----------x-----------------------|
D|-7--7------9--11-11-11-11-11-11-11-|(x2)
A|-7--7------9--11-11-11-11-11-11-11-|
E|-5--5--\/-----9--9--9--9--9--9--9--|

Chorus
e|---------------------------------|---------------------------------|
B|---------------------------------|---------------------------------|
G|---------------------------------|---------------------------------|
D|-12--12-12-12-12-12\7--7-7-7-7-7-|-12--12-12-12-12-12\7--7-7-7-7-7-|
A|-12--12-12-12-12-12\7--7-7-7-7-7-|-12--12-12-12-12-12\7--7-7-7-7-7-|
E|-10--10-10-10-10-10\5--5-5-5-5-5-|-10--10-10-10-10-10\5--5-5-5-5-5-|

e|----------------------------|---------------------------------|
B|----------------------------|---------------------------------|
G|----------------------------|----------------------7--7-7-7-7-|
D|-4--4-4-4-4-4--7--7-7-7-7-7-|-12--12-12-12-12-12\7-7--7-7-7-7-|
A|-4--4-4-4-4-4--7--7-7-7-7-7-|-12--12-12-12-12-12\7-5--5-5-5-5-|(x3)
E|-2--2-2-2-2-2--5--5-5-5-5-5-|-10--10-10-10-10-10\5------------|

e|-----|
B|-----|
G|-----|
D|-7\2-|
A|-7\2-|
E|-5\0-|

Key:
b - bend
x - mute strings
/ - slide up
\ - slide down
Suggest correction
Give kudos to tab author, rate the tab!
1 2 3 4 5
comments
print report bad tab
guest
You may want to rate the tab now too:
select rating
Wanna post a correction for this tab? Suggest correction