Oops, an error
Loading. Please wait.

Whats The Word Tab

version 2
version 2

Whole song

400 views 1 this week
no commentswrite comment
1 2 3 4 5
3 more votes to show rating
add to favorites
launch autoscroll
font size
0
reset
how to read this tab
guitar tuner
Autoscroll
slow
fast
+/-
esc
set tempo
stop
Help us to improve Ultimate-Guitar.com Take our survey!
×
Author
First Off i like to thank "dono91" for the chorus i touched it up

Second i Know the main guitarist loves tremolo but it sounds better like shown

3rd My First Tab!

Intro:
e|------------------------------------------------------------------------|
B|------------------------------------------------------------------------|
G|-11------14-----18------21----------------------------------------------|
D|-x-(x8)--x-(x8)--x-(x8)--x-(x8)-----------------------------------------|X2
A|-9-------12-----16------19----------------------------------------------|
E|------------------------------------------------------------------------|

Main Verse: 2nd time it's played 3 times
e|--------------------------------------------------------------------|
B|--------------------------------------------------------------------| X2
G|-11------14------11-------14------18------21------------------------|
D|-x-(x8)--x-(x8)--x-(x8)---x-(x8)--x-(x8)--x-x8)---------------------|
A|-9-------12-------9-------12------16------19------------------------|
E|--------------------------------------------------------------------|

Chorus:
e|------------------------------------------------------------------------|
B|--12----------------------------14-----14-14b-14-12-10------------------|
G|----11--11-------------------------11------------------11---------------|
D|------12-------(x13)----------------------------------------------------|
A|------------------------------------------------------------------------|
E|------------------------------------------------------------------------|

Back To Main Verse: but it's played 3 times not Twice
Chorus:

Third Verse:
e|------------------------------------------------------------------------|
B|-15-(x8)--14-(x8)----------------14-(x8)--17(x8)------------------------|
G|------------------14(x8)--11(x8)----------bend-near-the-last-3----------|
D|------------------------------------------------------------------------|X3
A|------------------------------------------------------------------------|
E|------------------------------------------------------------------------|

Chorus:

Ending solo:

e|-19(x6)-17-15-14--17(x6)-15-14--17/21(x8)--19-19(x8)-17-15-14--17(x8)-15-14--17/21(x8)----|
B|----------------15------------15-----------------------------15------------15---------21--|
G|------------------------------------------------------------------------------------------|
D|------------------------------------------------------------------------------------------|
A|------------------------------------------------------------------------------------------|
E|------------------------------------------------------------------------------------------|
Suggest correction
Give kudos to tab author, rate the tab!
1 2 3 4 5
comments
print report bad tab
guest
You may want to rate the tab now too:
select rating
Wanna post a correction for this tab? Suggest correction