Oops, an error
Loading. Please wait.

Worth The Wait Tab

version 1
version 1

Whole song

1,654 views 3 this week
1 commentread comment
1 2 3 4 5
accurate
x 6
add to favorites
launch autoscroll
font size
0
reset
how to read this tab
guitar tuner
Tab Pro tools
  • play this tab
  • loop segment
  • change instrument
  • show fretboard
  • metronome
Autoscroll
slow
fast
+/-
esc
set tempo
stop
Contributor
We Are Scientists - Worth the Wait

A song by an awesome band. I got annoyed at the fact that I couldn't find this song 
so I decided to tab it out myself. Hope it's ok for my first tab. Be nice :D

TP = Tremolo Picking
br = full bend and release

Verse 1:

e|-10--10---------10--------8--8--8---8---10--|
B|-11----10---------10------10-10-10--10--11--|
G|---------10-12------10-8--------------------|
D|--------------------------------------------|
A|--------------------------------------------|
E|--------------------------------------------|

e|-10-10-10--10--6-6-6--8---8--10-8--6-|
B|-11-11-11--11--8-8-8--10--10-11-10-8-|
G|-------------------------------------|
D|-------------------------------------|
A|-------------------------------------|
E|-------------------------------------|


Chorus:

e|--------------------------------------------------------|
B|--------------------------------------------------------|
G|-12-----14-----15-----14-----12-----14-----15-----19----|
D|----x8-----x8-----x8-----x8-----x8-----x8-----x8-----x8-|
A|-10-----12-----13-----12-----10-----12-----13-----17----|
E|--------------------------------------------------------|


Verse 2:

(Tremolo Picking)
e|---------------------------------------|
B|---------------------------------------|
G|---------------------------------------|
D|-5----4-5--8----7-8--12----11-12--8--7-| x2
A|---------------------------------------|
E|---------------------------------------|


Chorus:

e|--------------------------------------------------------|
B|--------------------------------------------------------|
G|-12-----14-----15-----14-----12-----14-----15-----19----|
D|----x8-----x8-----x8-----x8-----x8-----x8-----x8-----x8-|
A|-10-----12-----13-----12-----10-----12-----13-----17----|
E|--------------------------------------------------------|

Bridge:

e|----------------------|
B|-11-11-11-11-13-13----|
G|-------------------12-| x8
D|----------------------|
A|----------------------|
E|----------------------|


Solo:
                        TP|-------------------|
e|-6--10-----------10-------------------------|
B|-8----10-----------10-----------------------|
G|---------10-12--------10-8-7-8-10-8-7-------|
D|--------------------------------------8-7---|
A|--------------------------------------------|
E|--------------------------------------------|

                     TP|-----------------------------|
e|-10--10-10-10--10-10------------------10-11-10-8---|
B|-11--11-11-11--11-11--11-13-11----10---------------|
G|---------------------------------------------------|
D|---------------------------------------------------|
A|---------------------------------------------------|
E|---------------------------------------------------|

                        TP|----------------|
e|-6--10---------10--------8-6-5-6-8-6-5---|
B|-8----10---------10----------------------|
G|--------10-12br----10-8------------------|
D|-----------------------------------------|
A|-----------------------------------------|
E|-----------------------------------------|

                     TP|------------------------|
e|-10--10-10-10--10-10--------------------------|
B|-11--11-11-11--11-11--11-13-11----10-11-10----|
G|----------------------------------------------|
D|----------------------------------------------|
A|----------------------------------------------|
E|----------------------------------------------|

Chorus:

e|--------------------------------------------------------|
B|--------------------------------------------------------|
G|-12-----14-----15-----14-----12-----14-----15-----19----|
D|----x8-----x8-----x8-----x8-----x8-----x8-----x8-----x8-|
A|-10-----12-----13-----12-----10-----12-----13-----17----|
E|--------------------------------------------------------|

Bridge:

e|----------------------|
B|-11-11-11-11-13-13----|
G|-------------------12-| x8
D|----------------------|
A|----------------------|
E|----------------------|

End on:

e|-10-|
B|-11-|
G|----|
D|----|
A|----|
E|----|
comments
print report bad tab
1 comment total.
0 reply
FinderofNemo wrote on February 3 2007, 06:13 pm

Pretty good job here

I want to post or [tab]
guest
You may want to rate the tab now too:
select rating
Please do not post tabs as comments. Select "correction" instead!