Oops, an error
Loading. Please wait.

Bury Me Alive tab

version 2
version 2

Whole song

Interactive

342 views 3 this week
no commentswrite comment
1 2 3 4 5
3 more votes to show rating
add to favorites
×
Save as Personal and add changes to this tab that will be seen only by you. Learn more ›
×
You can save this tab as Personal to edit and correct it or add notes. All changes will be seen only by you. Learn more »
launch autoscroll
font size
0
reset
how to read this tab
guitar tuner
backing track
0:00
0:00
edit
Autoscroll
slow
fast
+/-
esc
set tempo
stop
-------------------------------------------------------------------------------
                            We Are The Fallen - Bury Me Alive
-------------------------------------------------------------------------------
Tabbed by: Diesel
E-mail: daughtryfan497@gmail.com

Tuning: Drop D ( D - A - D - G - B - E)

                Intro

e|-----------------------------------------------------------------------------|
B|---7-7--------------x2-------/12-12---------10-10----------------------------|
G|-------4-4-6-7-(7)-----------------4-4-6-7--------4-4-6-7--------------------|
D|-----------------------------------------------------------------------------|
A|-----------------------------------------------------------------------------|
E|-----------------------------------------------------------------------------|

                      Chorus

e|-----------------------------------------------------------------------------|
B|-----------------------------------------------------------------------------|
G|------------------------2----------------------------------------------------|
D|--4----4--5---0---4--4--2--2-------------------------------------------------|
A|--2----4--5---0---2--4--0--2-------------------------------------------------|
E|-------4--5---0------4-----2b(1/2)-0-----------------------------------------|

                           Verse

e|---------------------12+-----9----------------------------------7+-----------|
B|--12+-----7+---x3------------------12+----7+--12+---12+-----7+---------------|
G|-------5+----------------7+------------5+----------------5+------------------|
D|-----------------------------------------------------------------------------|
A|-----------------------------------------------------------------------------|
E|-----------------------------------------------------------------------------|

                          Pre Chorus

e|-----------------------------------------------------------------------------------
B|-----------------------------------------------------------------------------------
G|-----------------------------------------------------------------------------------
D|-------4-4------5-5-------2-2---2-2------4-4------5-5-----2------------------------
A|------4-4-4----5-5-5-5---2-2-2-2-2-2-2--4-4-4-4--5-5-5-5--2------------------------
E|-----4-----4--5-----5---2-----2-----2--4-----4--5-----5---2------------------------


                             Solo @ 2:20

e|-----------------------------------------------------------------------------|
B|----------8-7-5--3-2---------------------------------------------------------|
G|--/4--4---------------5b5b5b5b5b5-6-6----------------------------------------|
D|-----------------------------------------------------------------------------|
A|-----------------------------------------------------------------------------|
E|-----------------------------------------------------------------------------|

e|--------------------------------------------------------------------------------|
B|--------8-7-5---/15-15-14---17b-17b17b17b17b17b--17p15h17--17-15-14-15--14-12---|
G|-/4--4--------------------------------------------------------------------------|
D|--------------------------------------------------------------------------------|
A|--------------------------------------------------------------------------------|
E|--------------------------------------------------------------------------------|


Intro x1
Chorus x1
Verse x1
Pre Chorus x1
Chorus x1
Verse x1
Pre Chorus x1
Chorus x2
Solo x1
Chorus x2

************************************

| /   slide up
| \   slide down
| h   hammer-on
| p   pull-off
| ~   vibrato
| +   harmonic
| x   Mute note
| b   Bend
| pb  Pre-bend
| br  Bend release
| pbr Pre-bend release
| brb Bend release bend

************************************

            
            
Suggest correction
Creating personal tab
Creating personal tab
You can edit any tab online and save it as your Personal.

You can edit, replace or remove any tab part or add personal notes – all changes will be seen only by you.

Personal tabs can be accessed anytime from any device, even offline.
Learn more »
Give kudos to tab author, rate the tab!
1 2 3 4 5
comments
print report bad tab
guest
You may want to rate the tab now too:
select rating
Wanna post a correction for this tab? Suggest correction