Oops, an error
Loading. Please wait.

Carry Me Home Bass Tab

version 2
version 2

Whole song

557 views 1 this week
no commentswrite comment
1 2 3 4 5
2 more votes to show rating
add to favorites
launch autoscroll
font size
0
reset
guitar tuner
Autoscroll
slow
fast
+/-
esc
set tempo
stop
Help us to improve Ultimate-Guitar.com Take our survey!
×
Author
Tuning
D A D G B E
Song: Carry Me Home
Artist: We Are The In Crowd
Album: Guaranteed To Disagree
Bass Player: Mike Ferri
Tuning: Drop D

Tabbed By : posem21uk  


| /  slide up
| \  slide down
| h  hammer-on
| p  pull-off
| ~  vibrato
| +  harmonic
| x  Mute note
| <> Bend note


[Notes are always 1s and not 11s unless I have stated otherwise.]



Intro (0:03)

G|------------------------------------------------------------|
D|------------------------------------------------------------|
A|------------------------------------------------------------|
D|-1--------------6--------------1--------------66-----66-----|

Verse (0:14)

G|-----------------------------------------------------------------------------------|
D|-----------------------------------------------------------------------------------|
A|-------------------------------------------------------------3333-3333-------------|
D|-1111-1111-1111-1111-6666-6666-6666-6666-1111-1111-1111-1111-----------6666-6666---|

[Notes are grouped together so that its easier to read, no other reason]


Pre-Chorus (0:26)

G|----------------------------------------------------------------|
D|----------------------------------------------------------------|
A|-------------------------------------3333-3333-1111-1111--------|
D|-11----11----11----66----66----66------------------------6------|

Chorus (0:37)

G|----------------------------------------------------------------------------------|
D|----------------------------------------------------------------------------------|
A|----------------------------------------------------------------------------------|
D|-1111-1111-1111-1111-6666-6666-6666-6666-1111-1111-1111-1111-6666-6666-6666-6666--|

Pre-Verse (0:49)

G|-------------|
D|-------------|
A|-------------|
D|-11----11----|

Verse (0:51)

G|------------------------------------------------------------------|
D|------------------------------------------------------------------|
A|--------------------------------------------33--3-----------------|
D|-11---1---1-1-666---6---6-6---1---1---1-1---------6-6-6-6--13\----|

                                                   [Thats a slide down from 13]

Pre-Chorus (1:03)

G|-------------------------------------------------------------------------------|
D|-------------------------------------------------------------------6666-6666---|
A|-------------------------------------3333-3333-5555-6666-----------------------|
D|-11----11----11----66----66----66------------------------6666-6666-------------|

Chorus (1:14)

G|----------------------------------------------------------------------------------|
D|----------------------------------------------------------------------------------|
A|----------------------------------------------------------------------------------|
D|-1111-1111-1111-1111-6666-6666-6666-6666-1111-1111-1111-1111-6666-6666-6666-6666--|

G|----------------------------------------------------------------------------------|
D|----------------------------------------------------------------------------------|
A|-3333-3333-5555-6666--------------------------------------------------------------|
D|---------------------6666-6666-6666-6666-1111-1111-1111-1111-6666-6666-6666-6666--|

Bridge (1:37)

G|---------------------------------------------------------------------------|
D|---------------------------------------------------------------------------|
A|-1-1-1-1-1-1-1-1-3-3-3-3---------------------------------------------11----|
D|-------------------------6-6-6-6-3-3-3-3-5-5-5-5--6--6--6------------------|

                                                             [Thats an 11, not two 1s]

G|-------------------------------------------------|
D|-------------------------------------------------|
A|-------------------------------------------------|
D|-12\----1----------------6------------------12\--|

Chorus (2:03)

G|----------------------------------------------------------------------------------|
D|----------------------------------------------------------------------------------|
A|----------------------------------------------------------------------------------|
D|-1111-1111-1111-1111-6666-6666-6666-6666-1111-1111-1111-1111-6666-6666-6666-6666--|

G|----------------------------------------------------------------------------------|
D|----------------------------------------------------------------------------------|
A|-3333-3333-5555-6666--------------------------------------------------------------|
D|---------------------6666-6666-6666-6666-1111-1111-1111-1111-6666-6666-6666-6666--|

G|-----------------------------------------------------------------------------|
D|-----------------------------------------------------------------------------|
A|------------------------------------------3-3-3-3-3-3-5-6--1-1-1-1-1-1-5-6---|
D|-1111-1111-1111-1111-6666-6666-6666-6666-------------------------------------|

G|-------------------------------------------|
D|-------------------------------------------|
A|-------------------------------------------|
D|-6666-6666-6666-6666-8888-8888-8888-8888---|

Ending (2:43)

G|---------------------------------||
D|---------------------------------||
A|---------------------------------||
D|-1-1-1-1-1-1-1-1--6--------------||


===============================================================================
Suggest correction
Give kudos to tab author, rate the tab!
1 2 3 4 5
comments
print report bad tab
guest
You may want to rate the tab now too:
select rating
Wanna post a correction for this tab? Suggest correction