Oops, an error
Loading. Please wait.

Exits And Entrances Tab

7,104 views 1 this week
1 commentread comment
1 2 3 4 5
excellent!
x 5
add to favorites
launch autoscroll
font size
0
reset
how to read this tab
guitar tuner
Autoscroll
slow
fast
+/-
esc
set tempo
stop
Help us to improve Ultimate-Guitar.com Take our survey!
×
Author
Difficulty
intermediate
We Are the In Crowd: “Exits and Entrances”
Best Intentions

If you want, watch my cover to see how the rhythm goes.
http://youtu.be/bwCLxmsS7JQ
(first guitar cover on YouTube, by the way.)
Hope these tabs work for you! 

KEY: C#

Intro - 0:13 (you’ll have to figure out the rhythm on your own.)
eb|--------------------------------------------------|
Bb|--------------------------------------------------|
Gb|-14-9/11-9/11-12-9-7-9-7--------------------------|
Db|--------------------------------------------------|
Ab|-12-7/9—-7/9--10-7-9-7-5--------------------------|
Db|--------------------------------------------------|

eb|--------------------------------------------------|
Bb|--------------------------------------------------|
Gb|-14-9/11-9/11-------------------------------------|
Db|---------------0----------------------------------|
Ab|-12-7/9—-7/9---0----------------------------------|
Db|---------------0----------------------------------|


Verse 1 - 0:26 "We are, or we're about to be, so much closer..."
"We'll I'm sorry to say..."

eb|--------------------------------------------------|
Bb|--------------------------------------------------|
Gb|--------------------------------------------------|
Db|-55-555-77-77-9-1212------------------------------|
Ab|-55-555-77-77-9-1212------------------------------|
Db|-55-555-77-77-9-1212------------------------------|

"It's none of my business..."

eb|--------------------------------------------------|
Bb|--------------------------------------------------|
Gb|--------------------------------------------------|
Db|-555555555555-777777-999999-----------------------|
Ab|-555555555555-777777-999999-----------------------|
Db|-555555555555-777777-999999-----------------------|

"If I hang on for the ride, I promise I’ll crash without her there..."

eb|--------------------------------------------------|
Bb|--------------------------------------------------|
Gb|--------------------------------------------------|
Db|-5~-7~--------------------------------------------|
Ab|-5~-7~--------------------------------------------|
Db|-5~-7~--------------------------------------------|

Chorus at 0:50 (again, find the rhythm.)

eb|--------------------------------------------------|
Bb|--------------------------------------------------|
Gb|-14-9-11-7--14-11/12-9-7--------------------------|
Db|--------------------------------------------------|
Ab|-12-7-9--5--12-9/10--7-5--------------------------|
Db|--------------------------------------------------|

Verse 2 – 1:02 "I know the way this plays out…"

eb|----------------------------------------------------|
Bb|----------------------------------------------------|
Gb|----------------------------------------------------|
Db|-7777-9999-5555-5-5555------------------------------|
Ab|-7777-9999-5555-5-5555------------------------------|
Db|-7777-9999-5555-5-5555------------------------------|

"And you thought that everytime, she would never tell a lie..."

eb|----------------------------------------------------|
Bb|----------------------------------------------------|
Gb|----------------------------------------------------|
Db|-7777-9999-5555-5-5555------------------------------|
Ab|-7777-9999-5555-5-5555------------------------------|
Db|-7777-9999-5555-5-5555------------------------------|

Pre-Chorus – 1:13 "It’s none of my business/Hang on for the ride…"
You’ll have to listen closely for the rhythm…

eb|----------------------------------------------------|
Bb|----------------------------------------------------|
Gb|-7/9/11/14---------------------7/9/11/12\9\7--------|
Db|----------------(second time)-----------------------|
Ab|-5/7/9-/12---------------------5/7/9-/10\7\5-5555---|
Db|-------------------------------------------0-0000---|

Repeat Chorus

Bridge - 1:49 “Did you get what you wanted?...” (again, figure out the rhythym.)

eb|----------------------------------------------------|
Bb|----------------------------------------------------|
Gb|----------------------------------------------------|
Db|-5-2-9-9\7-9\7---5-2-0~-----------------------------|
Ab|-5-2-9-9\7-9\7---5-2-0~-----------------------------|
Db|-5-2-9-9\7-9\7---5-2-0~-----------------------------|

eb|----------------------------------------------------|
Bb|----------------------------------------------------|
Gb|----------------------------------------------------|
Db|-5-2-0---0~-----------------------------------------|
Ab|-5-2-0---0~-----------------------------------------|
Db|-5-2-0---0~-----------------------------------------|

“She’s like a rock and you keep chippin’ off a piece, chippin’ off a piece."
(silent)

2:14 - "She’s like a rock (Yeah she’s like a rock…)”

Eb|----------------------------------------------------|
Bb|----------------------------------------------------|
Gb|--7-------------------------------------------------|
Db|--x-------------------------------------------------| (lots of times)
Ab|--5-------------------------------------------------|
Db|----------------------------------------------------|

"Hang on for the ride..."
(silent)

Repeat Chorus
Suggest correction
What's this?
You can suggest a correction to this tab. Community and Mods will review your correction and vote to approve or reject it.
comments
print report bad tab
1 comment total.
0 reply
Dylan_Huffman31 156 wrote on July 29 2014, 08:15 am

Thanks a lot for this tab!! It's awesome! 5 Stars!

guest
You may want to rate the tab now too:
select rating
Please do not post tabs as comments. Select "correction" instead!