Oops, an error
Loading. Please wait.

For The Win Tab

version 1
version 1

Acoustic

Whole song

1,483 views 3 this week
no commentswrite comment
1 2 3 4 5
please rate
add to favorites
launch autoscroll
font size
0
reset
how to read this tab
guitar tuner
Autoscroll
slow
fast
+/-
esc
set tempo
stop
Help us to improve Ultimate-Guitar.com Take our survey!
×
Contributor
-------------------------------------------------------------------------
                For The Win Acoustic - We Are The In Crowd
-------------------------------------------------------------------------

Tabbed by: Greentea
E-mail: Green_tea--@hotmail.com

This acoustic version is the tab for their performance on SmartPunkLive.

http://www.youtube.com/watch?v=JfYxVn2QUfU

This song has a bit of a weird tuning. Guarantee it is correct though. 
The B string will sound a bit floppy depending on the gauge of strings you use.

Tuning: CGCGGD

Note: I am not putting in the strumming pattern in and I am only putting in the chords.

Please comment and rate (:

Verse 1

D|-----0-------0-------0-------0-------0-------0-------0-------0---------|
G|---0---0---0---0---0---0---0---0---0---0---0---0---0---0---0---0-------|
G|-4-------4-------4-------4-------2-------2-------5-------5-------------|
C|-----------------------------------------------------------------------| x4
G|-----------------------------------------------------------------------|
C|-----------------------------------------------------------------------|

D|-------------|
G|-0-0-0-0-0-0-|
G|-0-0-0-0-0-0-|
C|-2-2-0-2-4-0-|
G|-0-4-0-0-4-0-|
C|-0-0-0-0-4-0-|

Chorus

D|---------|
G|-0-0-0-0-|
G|-0-0-0-0-|
C|-2-2-4-0-|x2
G|-0-2-4-0-|
C|-0-2-4-0-|

Post Chorus/ Verse 2

D|-------------| 
G|-0-0---0-0-0-|
G|-0-0-9-0-0-0-| 
C|-2-2-7-2-2-0-|
G|-0-4-5-0-4-0-|
C|-0-0---0-0-0-|

D|-------|
G|-0-0-0-|
G|-0-0-0-|
C|-2-4-0-|x2
G|-0-4-0-|
C|-0-4-0-|

Chorus

D|---------|
G|-0-0-0-0-|
G|-0-0-0-0-|
C|-2-2-4-0-|x4
G|-0-2-4-0-|
C|-0-2-4-0-|

Bridge

D|-----------|
G|-0-0-0-0-0-|
G|-0-0-0-0-0-|
C|-4-2-7-0-2-|x4
G|-4-2-7-0-2-|
C|-4-2-7-0-2-|

Chorus

D|-----------|
G|-----------|
G|-0-11-12-9-|
C|-2--9-11-7-|
G|-0--7--9-5-|
C|-0---------|

C|---------|
G|-0-0-0-0-|
G|-0-0-0-0-|
C|-2-2-4-0-|x3
G|-0-2-4-0-|
C|-0-2-4-0-|

C|-------------------|
G|-0-----------------|
G|-0-11-12-9-12-11-9-|
C|-2--9-11-7-11--9-7-|
G|-0--7--9-5--9--7-5-|
C|-0-----------------|

Finished (: Comment and rate please :3
comments
We did not receive enough feedback on this tab! Please rate:
print report bad tab
1 2 3 4 5
I want to post or [tab]
guest
You may want to rate the tab now too:
select rating
Please do not post tabs as comments. Select "correction" instead!