Oops, an error
Loading. Please wait.

Lights Out Bass Tab

2,540 views 1 this week
no commentswrite comment
1 2 3 4 5
2 more votes to show rating
add to favorites
launch autoscroll
font size
0
reset
guitar tuner
Autoscroll
slow
fast
+/-
esc
set tempo
stop
Help us to improve Ultimate-Guitar.com Take our survey!
×
Author
Tuning
D A D G B E
Song: Lights Out
Artist: We Are The In Crowd
Album: Guaranteed To Disagree
Bass Player: Mike Ferri
Tuning: Drop D

Tabbed By : posem21uk  


| /  slide up
| \  slide down
| h  hammer-on
| p  pull-off
| ~  vibrato
| +  harmonic
| x  Mute note
| <> Bend note


Intro (0:01)

G|--------------------------------------------------------------------|
D|--------------------------------------------------------------------|
A|---------------------------------------5--5--------------7----------|
D|-0--0--7--77-777--2-2--222--5--55-555--------7--77-777------0--5----|

Verse (0:12)

G|---------------------------------------------------|
D|---------------------------------------------------|
A|---------------------------------------------------|
D|-0------------------------5------------------------|

G|----------------------------------------------------------|
D|----------------------------------------------------------|
A|----------------------------------------------------------|
D|-000---000------000---000------555---555------555---555---|

Pre-Chorus (0:32)

G|-----------------------------------------------------------------------------|
D|-----------------------------------------------------------------------------|
A|-7777-7777-7777---------------------------7777-7777-9999-9999----------------|
D|-----------------0000-5555-5555-5555-5555---------------------5555-5555--7---|

[Notes are in groups of 4 so that its easier to read, no other reason]

Chorus (0:42)

G|-----------------------------------------------------------------------------|
D|-----------------------------------------------------------------------------|
A|---------------------------------------5--5----------------------------------|
D|-0--0--7--77-777--2-2--222--5--55-555--------7--77-777--2-2--222--5--55-555--|


G|--------------------------------------------------------------------|
D|--------------------------------------------------------------------|
A|-------------------------------------5--5---------------------------|
D|-0-0-0-0--7-7-7-7--2--2---5--55-555--------7--77-777--5555-5555-5---|

Pre-Verse (1:03)

G|--------|
D|--------|
A|--------|
D|--0-----|

Verse (1:06)

G|----------------------------------------------------------|
D|----------------------------------------------------------|
A|----------------------------------------------------------|
D|-000---000------000---000------555---555------555---555---|

G|-------------------------------------------------------------------|
D|--------------------------5555-5555-5555-5555-5555-5555-5555-5555--|
A|-------------------------------------------------------------------|
D|-000---000------000---000------------------------------------------|

Pre-Chorus (1:26)

G|-----------------------------------------------------------------------------|
D|-----------------------------------------------------------------------------|
A|-7777-7777-7777---------------------------7777-7777-9999-9999----------------|
D|-----------------0000-5555-5555-5555-5555---------------------5555-5555--7---|

Chorus (1:38)

G|-----------------------------------------------------------------------------|
D|-----------------------------------------------------------------------------|
A|---------------------------------------5--5----------------------------------|
D|-0--0--7--77-777--2-2--222--5--55-555--------7--77-777--2-2--222--5--55-555--|


G|---------------------------------------------------------------------------|
D|---------------------------------------------------------------------------|
A|-------------------------------------5--5----------------------------------|
D|-0-0-0-0--7-7-7-7--2--2---5--55-555--------7--77-777--5555-5555-5555-5555--|

Bridge (1:59)

G|---------------------------------------------------------------------------------|
D|---------------------------------------------------------------------------------|
A|---------------------------------------------------------------------------------|
D|-9999-9999-9999-4444-5555-5555-5555-5555-0000-0000-0000-0000-4444-4444-4444-4444-|

G|---------------------------------------------------------------------------------|
D|---------------------------------------------------------------------------------|
A|---------------------------------------------------------------------------------|
D|-9999-9999-9999-4444-5555-5555-5555-5555-0000-0000-0000-0000-7777-7777-7777-7777-|

Pre-Chorus (2:20)

G|----------------------------------------------------------------------------|
D|----------------------------------------------------------------------------|
A|----------------------------------------------------------------------------|
D|-5\-------------------------------------------------------5555-5555-7777-7--|

Chorus (2:30)

G|--------------------------------------------------------------------------|
D|--------------------------------------------------------------------------|
A|-----------------------------------5--5-----------------------------------|
D|-0--0--7---------5\----------------------7--77-777--2-2--222--5--55-555---|

G|--------------------------------------|
D|--------------------------------------|
A|--------------------------------------|
D|-0-0-0-0--7-7-7-7--2--2---5--55-555---|

G|-----------------------------------------------------------------------------|
D|-----------------------------------------------------------------------------|
A|---------------------------------------5--5----------------------------------|
D|-0--0--7--77-777--2-2--222--5--55-555--------7--77-777--2-2--222--5--55-555--|

G|-------------------------------------------------------|
D|-------------------------------------------------------|
A|-------------------------------------5--5--------------|
D|-0-0-0-0--7-7-7-7--2--2---5--55-555--------7--77-777---|

Ending (3:04)

G|--------------------------------------------|
D|--------------------------------------------|
A|--------------------------------------------|
D|-5555-5555-5555-5555--7777-7777-7777-7777---|

G|--------------||
D|--------------||
A|--------------||
D|--2--0--5-----||


===============================================================================
Suggest correction
Give kudos to tab author, rate the tab!
1 2 3 4 5
comments
print report bad tab
guest
You may want to rate the tab now too:
select rating
Wanna post a correction for this tab? Suggest correction